Oops, an error
Loading. Please wait.

Hmoob Lub Kua Muag - Hmong Ok Collaboration Tab

2,332 views 30 this week
no commentswrite comment
1 2 3 4 5
excellent!
x 2
Autoscroll
+/-
esc
set tempo
stop
Contributor
Difficulty
novice
Hey! There's an official Ultimate Guitar app which is ideal
for learning songs when you're away from computer. Get the app
WARNING: You are trying to view
                                    content from Ultimate-Guitar.com
                                    in an unauthorized application,
                                    which is prohibited.

                                    Please use an official Ultimate
                                    Guitar Tabs application for iPhone,
                                    iPad or Android to access legitimate
                                    chords, guitar, bass, and drum tabs
                                    from Ultimate-Guitar.com database.

                                    Type "ultimate guitar tabs" in Apple
                                    App Store's or Android Market's
                                    search to find the application.
Hmoob Lub Kua Muag by Hmong of Oklahoma Collaboration
*If you're going to copy/paste this. Make sure to change their font to Courier New. OR 
copy/paste them on NotePad.
Standard tuning.
How to Play video: www.youtube.com/watch?v=UUotGrhqSY4


Chords: Am: x02210 C: x32010 G/C: 320001 F: 133211

First Verse:
  Am
---------------------------------------------------------------------------|
---------------------1----------------------------------1------------------|
-----------2-----------------2-----------------2----------------2----------|
------2--------2--------2-------2---------2-------2-------2-------2--------|
--0-------------------------------------0----------------------------------|
---------------------------------------------------------------------------|

  C
---------------------------------------------------------------------------|
----------------1-------------------------------------------1--------------|
---------0--------------0-------------------------0-----------------0------|
------2-----2-------2-------2----------------2--------2--------2-------2---|
--3-------------------------------------3----------------------------------|
---------------------------------------------------------------------------|

  G/C
---------------------------------------------------------------------------|
-------------------0-----------------------------------0-------------------|
---------0----------------0-----------------0----------------0-------------|
----0-------0-------0-------0---------0-------0-------0-------0------------|
---------------------------------------------------------------------------|
--3----------------------------------3-------------------------------------|

  Am
---------------------------------------------------------------------------|
---------------------1----------------------------------1------------------|
-----------2-----------------2-----------------2----------------2----------|
------2--------2--------2-------2---------2-------2-------2-------2--------|
--0-------------------------------------0----------------------------------|
---------------------------------------------------------------------------|

play the first verse twice..

First Pre-chorus:
  F                                     G/c
---------------------------------------------------------------------------|
---------------------1----------------------------------0------------------|
-----------2-----------------2-----------------0----------------0----------|
------3--------3--------3-------3---------0-------0-------0-------0--------|
---------------------------------------------------------------------------|
--1-------------------------------------3----------------------------------|

  C
--------------------------------------|
---------------1----------------------|
------0------------0------------------|
--2-------2----2-------2--------------|
--3-----------------------------------|
--------------------------------------|

Am                                        F
---------------------------------------------------------------------------|
----------------------1-----------------------------------1----------------|
------------2-----------------2------------------2----------------2--------|
-------2--------2--------2-------2----------3-------3-------3-------3------|
--0------------------------------------------------------------------------|
------------------------------------------1--------------------------------|

  G/C
----------------------------------------------------------------------|
-----------------0-----------------------------------0----------------|
--------0---------------0------------------0-----------------0--------|
--0-------0------0-------0------------0--------0--------0-------0-----|
----------------------------------------------------------------------|
--3-------------------------------3-----------------------------------|


Second Verse:
  Am
--------------------------------------------------------------------------|
---------------------1----------------------------------1-----------------|
-----------2-----------------2-----------------2----------------2---------|
------2--------2--------2-------2---------2-------2-------2-------2-------|
--0-------------------------------------0---------------------------------|
--------------------------------------------------------------------------|

  C
--------------------------------------------------------------------------|
---------------1---------------------------------------1------------------|
--------0----------------0--------------------0-----------------0---------|
-----2-----2--------2-------2--------------2-----2---------2-------2------|
--3-----------------------------------3-----------------------------------|
--------------------------------------------------------------------------|

  G/C
-------------------------------------------------------------------------|
-------------------0-----------------------------------0-----------------|
---------0----------------0-----------------0----------------0-----------|
----0-------0-------0-------0---------0-------0-------0-------0----------|
-------------------------------------------------------------------------|
--3----------------------------------3-----------------------------------|

Am
-------------------------------------------------------------------------|
--------------------1----------------------------------1-----------------|
----------2-----------------2-----------------2----------------2---------|
-----2--------2--------2-------2---------2-------2-------2-------2-------|
-0-------------------------------------0---------------------------------|
-------------------------------------------------------------------------|
play second verse twice..


Second Pre-chorus:
  F                                     G/C
-------------------------------------------------------------------------|
---------------------1----------------------------------0----------------|
-----------2-----------------2-----------------0----------------0--------|
------3--------3--------3-------3---------0-------0-------0-------0------|
-------------------------------------------------------------------------|
--1-------------------------------------3--------------------------------|

   C                                 Am
-------------------------------------------------------------------------|
------------------1--------------------------------------1---------------|
--------0----------------0---------------------2-----------------2-------|
--2-------2-------2-------2---------------2--------2--------2-------2----|
--3----------------------------------0-----------------------------------|
-------------------------------------------------------------------------|

   F
---------------------------------------|
-------------------1-------------------|
----------2----------------2-----------|
-----3-------3-------3-------3---------|
---------------------------------------|
---1-----------------------------------|

  G/C
-------------------------------------------------------------------------|
-------------------0-----------------------------------0-----------------|
---------0----------------0-----------------0----------------0-----------|
----0-------0-------0-------0---------0-------0-------0-------0----------|
-------------------------------------------------------------------------|
--3----------------------------------3-----------------------------------|


  Am
-------------------------------------------------------------------------|
---------------------1----------------------------------1----------------|
-----------2-----------------2-----------------2----------------2--------|
------2--------2--------2-------2---------2-------2-------2-------2------|
--0-------------------------------------0--------------------------------|
-------------------------------------------------------------------------|


Chorus:
  F                                     G/c
---------------------------------------------------------------------------|
---------------------1----------------------------------0------------------|
-----------2-----------------2-----------------0----------------0----------|
------3--------3--------3-------3---------0-------0-------0-------0--------|
---------------------------------------------------------------------------|
--1-------------------------------------3----------------------------------|

  C
--------------------------------------|
---------------1----------------------|
------0------------0------------------|
--2-------2----2-------2--------------|
--3-----------------------------------|
--------------------------------------|

Am                                        F
---------------------------------------------------------------------------|
----------------------1-----------------------------------1----------------|
------------2-----------------2------------------2----------------2--------|
-------2--------2--------2-------2----------3-------3-------3-------3------|
--0------------------------------------------------------------------------|
------------------------------------------1--------------------------------|

  G/C
----------------------------------------------------------------------|
-----------------0-----------------------------------0----------------|
--------0---------------0------------------0-----------------0--------|
--0-------0------0-------0------------0--------0--------0-------0-----|
----------------------------------------------------------------------|
--3-------------------------------3-----------------------------------|

C
----------------------------------------------------------------------------|
---------------------1--------------------- -------------1------------------|
-----------0-----------------0-----------------0----------------0-----------|
------2--------2--------2-------2---------2-------2-------2-------2---------|    Repeat 
Chorus 1x
-3-------------------------------------3------------------------------------|
----------------------------------------------------------------------------|


  F                                     G
---------------------------------------------------------------------------|
---------------------1----------------------------------0------------------|
-----------2-----------------2-----------------0----------------0----------|
------3--------3--------3-------3---------0-------0-------0-------0--------|
---------------------------------------------------------------------------|
--1-------------------------------------3----------------------------------|

  C
--------------------------------------------------------------------------|
------------------1------------------------------------1------------------|
--------0----------------0-------------------2-----------------2----------|
--2-------2-------2-------2-------------2--------2--------2-------2-------|
--3--------------------------------0--------------------------------------|
--------------------------------------------------------------------------|

Am
--------------------------------------------------------------------------|
-------------------1------------------------------------1-----------------|
----------2----------------2------------------2----------------2----------|
-----2-------2-------2-------2----------3-------3-------3-------3---------|
--0-----------------------------------------------------------------------|
----------------------------------------1---------------------------------|

  G
---------------------------------------------------------------------------|
---------------------0----------------------------------0------------------|
-----------0-----------------0-----------------0----------------0----------|
------0--------0--------0-------0---------0-------0-------0-------0--------|
---------------------------------------------------------------------------|
--3-------------------------------------3----------------------------------|

  Am
---------------------------------------------------------------------------|
------------------1------------------------------------1-------------------|
--------2----------------2-------------------2-----------------2-----------|
--2-------2-------2-------2-------------2--------2--------2-------2--------|
--0--------------------------------0---------------------------------------|
---------------------------------------------------------------------------|
comments
We did not receive enough feedback on this tab! Please rate:
print report bad tab
1 2 3 4 5
I want to post or [tab]
guest
You may want to rate the tab now too:
select rating
Please do not post tabs as comments. Select "correction" instead!