Oops, an error
Loading. Please wait.

Hoist - Venice Queen Tab

206 views 1 this week
no commentswrite comment
1 2 3 4 5
please rate
add to favorites launch autoscroll
font size
0
reset
Autoscroll
+/-
esc
set tempo
stop
Difficulty
intermediate
WARNING: You are trying to view
                                    content from Ultimate-Guitar.com
                                    in an unauthorized application,
                                    which is prohibited.

                                    Please use an official Ultimate
                                    Guitar Tabs application for iPhone,
                                    iPad or Android to access legitimate
                                    chords, guitar, bass, and drum tabs
                                    from Ultimate-Guitar.com database.

                                    Type "ultimate guitar tabs" in Apple
                                    App Store's or Android Market's
                                    search to find the application.
Hoist - Venice Queen (Live red Hot Chili Peppers Cover)

Hoist is a local band from winnipeg, Manitoba.

The website is www.purevolume.com/hoist

E|---0----0--------0----0----------------||
B|-0--------0----0--------0--------------||
G|-----16-----16-----16------------------||
D|----------------------------17-16------||    
A|---------------------------------------||
E|---------------------------------------||


E|---0----0--------0----0--------0-------||
B|-0--------0----0--------0----0---------||
G|-----16-----16-----16-----16-----16\---||
D|---------------------------------------||
A|---------------------------------------||
E|---------------------------------------||


E|--------2--2------2--2-2-2---------3--3------3--3-3------||
B|----3-0-0--0-3--0-0--0-0-0----3--0-0--0-3--0-0--0-0-0----||
G|----0-0-0--0-0--0-0--0-0-0----0--0-0--0-0--0-0--0-0-0----||
D|--2---------------------------2--2-2--2-2--2-2--2-2-0----||
A|--3-------------------------0----------------------------||
E|---------------------------------------------------------||


E|---0----0--------0----0------------|---0----0--------0-----------||
B|-0--------0----0--------0----------|-0--------0----0-------------||
G|-----16-----16-----16--------------|-----16-----16---------------||
D|----------------------------17-16--|-----------------------------||
A|-----------------------------------|-----------------------------||
E|-----------------------------------|-----------------------------||


E|-0-0--0-0--0-0---x-2-2-x-x---||
B|-0-0--0-0--0-0---x-3-3-x-x---||
G|-0-0--0-0--0-0---x-2-2-x-x---|| 
D|-2-2--2-2--2-2---x-4-4-x-x---||
A|-2-2--2-2--2-2---x-3-3-x-x---||
E|-0-0--0-0--0-0---x-----------||


E|-0--0--0-0--0----0-0--x-0-2-2--2-2---2-2--2--x--x-------------||
B|-0--0--0-0--0----0-0--x-0-3-3--3-3---3-3--3--x--x-------------||
G|-0--0--0-0--0----0-0--x-2-2-2--2-2---2-2--2--x--x-------------||
D|-2--2--2-2--2----2-2--x-2-0-0--0-0---0-0--0--x--x-------------||
A|-0--0--0-0--0----0-0--x-0---x--x-x---x-x--x-------------------||
E|----------------------------2--2-2---2-2--2-------------------||


E|------------------------------------------------------------------------||
B|----------12----------15------------12-----------15-----------12--------||
G|-------12----12----16------------12----12-----16-----------12----12-----||
D|----14----------14--------14--14----------14--------14--14----------14--||
A|-14-------------15--------14--------------15--------14--------------15--||
E|------------------------------------------------------------------------||


E|--------|-----------------------------------------------------||
B|----15--|-12-------12-------12-------10-------10--------------||
G|-16-----|----12-------12-------12-------11-------11-----------||
D|--------|-------14-------14-------14-------12-------12s14-----||
A|--------|-----------------------------------------------------||
E|--------|-----------------------------------------------------||


E|------------------------------------------------------------------------||
B|----------12----------15------------12-----------15-----------12--------||
G|-------12----12----16------------12----12-----16-----------12----12-----||
D|----14----------14--------14--14----------14--------14--14----------14--||
A|-14-------------15--------14--------------15--------14--------------15--||
E|------------------------------------------------------------------------||


E|--------|-----------------------------------------------------||
B|----15--|-12-------12-------12-------10-------10--------------||
G|-16-----|----12-------12-------12-------10-------10-----------||
D|--------|-------12-------12-------12-------11-------11-12-----||
A|--------|-----------------------------------------------------||
E|--------|-----------------------------------------------------||


E|------------------------------------------------------------------------||
B|----------12----------15------------12-----------15-----------12--------||
G|-------12----12----16------------12----12-----16-----------12----12-----||
D|----14----------14--------14--14----------14--------14--14----------14--||
A|-14-------------15--------14--------------15--------14--------------15--||
E|------------------------------------------------------------------------||


E|--------|-----------------------------------------------------||
B|----15--|-12-------12-------12-------13-------13-------------||
G|-16-----|----12-------12-------12-------14-------14-----------||
D|--------|-------14-------14-------14-------16-------16s14-----||
A|--------|-----------------------------------------------------||
E|--------|-----------------------------------------------------||


E|------------------------------------------------------------------------||
B|----------12----------15------------12-----------15-----------12--------||
G|-------12----12----16------------12----12-----16-----------12----12-----||
D|----14----------14--------14--14----------14--------14--14----------14--||
A|-14-------------15--------14--------------15--------14--------------15--||
E|------------------------------------------------------------------------||


E|--------|-----------------------------------------------------||
B|----15--|-12-------12-------12-------14-------14--------------||
G|-16-----|----12-------12-------12-------15-------15-----------||
D|--------|-------12-------12-------12-------14-------14s12-----||
A|--------|-----------------------------------------------------||
E|--------|-----------------------------------------------------||


E|------------------------------------------------------------------------||
B|----------12----------15------------12-----------15-----------12----15\-||
G|-------12----12----16------------12----12-----16-----------12----12-16\-||
D|----14----------14--------14--14----------14--------14--14----------14\-||
A|-14-------------15--------14--------------15--------14--------------15\-||
E|------------------------------------------------------------------------||


E|--------------------------------------------------|--3---3--3-3--3---3-3-||
B|-2---2--2-2--2---2-2----2-2--2---2-2-2-2--2--x-x--|--3---3--3-3--3---3-3-||
G|-2---2--2-2--2---2-2----2-2--2---2-2-2-2--2--x-x--|--2---2--2-2--2---2-2-||
D|-2---2--2-2--2---2-2----2-2--2---2-2-2-2--2--x-x--|--0---0--0-0--0---0-0-||
A|-0---0--0-0--0---0-0----0-0--0---0-0-0-0--0--x-x--|--x---x--x-x--x---x-x-||
E|--------------------------------------------------|--3---3--3-3--3---3-3-||


E|--3-3-3-3---3-3-3-3--3--x--x--|--0----0--0-0--0----0-0----0-0--0---0-0-0-||
B|--3-3-3-3---3-3-3-3--3--x--x--|--1----1--1-1--1----1-1----1-1--1---1-1-1-||
G|--2-2-2-2---2-2-2-2--2--x--x--|--2----2--2-2--2----2-2----2-2--2---2-2-2-||
D|--0-0-0-0---0-0-0-0--0--x--x--|--3----3--3-3--3----3-3----3-3--3---3-3-3-||
A|--x-x-x-x---x-x-x-x--x--x--x--|------------------------------------------||
E|--3-3-3-3---3-3-3-3--3--x--x--|------------------------------------------||


E|-0--0--x-x--|--0----0---0-0--0---0-0----0-0--0---0-0-0-0--0--x--x---||
B|-1--1--x-x--|--1----1---1-1--1---1-1----1-1--1---1-1-1-1--1--x--x---||
G|-2--2--x-x--|--2----2---2-2--2---2-2----2-2--2---2-2-2-2--2--x--x---||
D|-3--3--x-x--|--0----0---0-0--0---0-0----0-0--0---0-0-0-0--0--x--x---||
A|------------|-------------------------------------------------------||
E|------------|-------------------------------------------------------||


E|--------------------------------------------------|--3---3--3-3--3---3-3-||
B|-2---2--2-2--2---2-2----2-2--2---2-2-2-2--2--x-x--|--3---3--3-3--3---3-3-||
G|-2---2--2-2--2---2-2----2-2--2---2-2-2-2--2--x-x--|--2---2--2-2--2---2-2-||
D|-2---2--2-2--2---2-2----2-2--2---2-2-2-2--2--x-x--|--0---0--0-0--0---0-0-||
A|-0---0--0-0--0---0-0----0-0--0---0-0-0-0--0--x-x--|--x---x--x-x--x---x-x-||
E|--------------------------------------------------|--3---3--3-3--3---3-3-||


E|--3-3-3-3---3-3-3-3--3--x--x--|--0----0--0-0--0----0-0----0-0--0---0-0-0-||
B|--3-3-3-3---3-3-3-3--3--x--x--|--1----1--1-1--1----1-1----1-1--1---1-1-1-||
G|--2-2-2-2---2-2-2-2--2--x--x--|--2----2--2-2--2----2-2----2-2--2---2-2-2-||
D|--0-0-0-0---0-0-0-0--0--x--x--|--3----3--3-3--3----3-3----3-3--3---3-3-3-||
A|--x-x-x-x---x-x-x-x--x--x--x--|--3----3--3-3--3----3-3----3-3--3---3-3-3-||
E|--3-3-3-3---3-3-3-3--3--x--x--|------------------------------------------||


E|-0--0--x-x--|--0---0--0-0-0----0-0----0-0-0--0-0-0-0-0-x-x------------||
B|-1--1--x-x--|--0---0--0-0-0----0-0----0-0-0--0-0-0-0-0-x-x------------||
G|-2--2--x-x--|--0---0--0-0-0----0-0----0-0-0--0-0-0-0-0-x-x------------||
D|-3--3--x-x--|--0---0--0-0-0----0-0----0-0-0--0-0-0-0-0-x-x------------||
A|-3--3--x-x--|--x---x--x-x-x----x-x----x-x-x--x-x-x-x-x-x-x------------||
E|------------|--3---3--3-3-3----3-3----3-3-3--3-3-3-3-3-x-x------------||


E|-0----0---0-0--0----0-0----0-0--0---0-0--0--0--x---0-----||
B|-1----1---1-1--1----1-1----1-1--1---1-1--1--1--x---1-----||
G|-2----2---2-2--2----2-2----2-2--2---2-2--2--2--x---2-----||
D|-3----3---3-3--3----3-3----3-3--3---3-3--3--3--x---0-----||
A|-3----3---3-3--3----3-3----3-3--3---3-3--3--3--x---------||
E|---------------------------------------------------------||
comments
We did not receive enough feedback on this tab! Please rate:
1 2 3 4 5
I want to post or [tab]
guest
You may want to rate the tab now too:
select rating
Please do not post tabs as comments. Select "correction" instead!