Oops, an error
Loading. Please wait.

Horns Become Halos - Month Late Calendar Tab

74 views 1 this week
no commentswrite comment
1 2 3 4 5
please rate
add to favorites launch autoscroll
font size
0
reset
Autoscroll
+/-
esc
set tempo
stop
Contributor
Difficulty
intermediate
WARNING: You are trying to view
                                    content from Ultimate-Guitar.com
                                    in an unauthorized application,
                                    which is prohibited.

                                    Please use an official Ultimate
                                    Guitar Tabs application for iPhone,
                                    iPad or Android to access legitimate
                                    chords, guitar, bass, and drum tabs
                                    from Ultimate-Guitar.com database.

                                    Type "ultimate guitar tabs" in Apple
                                    App Store's or Android Market's
                                    search to find the application.
Month Late Calendar
Written by:                          
Horns Become Halos

Half Step Down


LEAD:

      PM PM         PM PM         PM PM       
      S  S  S  S E  S  S  S  S E  S  S  S  S  
D#||-----------------------------------------|
A#||-----------------------------------------|
F#||-----------------------------------------|
C#||-------------5-------------4-------------|
G#||--------5h-7----------5h-7----------5h-7-|
D#||--0--0----------0--0----------0--0-------|


  PM PM         PM PM           NH  NH  NH  NH 
  S  S  S  S E  S  S  S  S E    S   S   S   S  
----------------------------------------------|
----------------------------------------------|
--------------------------------------<>7-----|
-------------5-------------4------<>7-----<>7-|
--------5h-7----------5h-7----<>7-------------|
--0--0----------0--0--------------------------|


  PM PM         PM PM         PM PM       
  S  S  S  S E  S  S  S  S E  S  S  S  S  
-----------------------------------------|
-----------------------------------------|
-----------------------------------------|
-------------5-------------4-------------|
--------5h-7----------5h-7----------5h-7-|
--0--0----------0--0----------0--0-------|


  PM PM         PM PM           NH  NH  NH  NH 
  S  S  S  S E  S  S  S  S E    S   S   S   S  
----------------------------------------------|
----------------------------------------------|
--------------------------------------<>5-----|
-------------5-------------4------<>5-----<>5-|
--------5h-7----------5h-7----<>5-------------|
--0--0----------0--0--------------------------|


    PM PM         PM PM         PM PM       
    S  S  S  S E  S  S  S  S E  S  S  S  S  
|------------------------------------------|
|------------------------------------------|
|*-----------------------------------------|
|*-------------5-------------4-------------|
|---------5h-7----------5h-7----------5h-7-|
|---0--0----------0--0----------0--0-------|


  PM PM         PM PM           NH  NH  NH  NH 
  S  S  S  S E  S  S  S  S E    S   S   S   S  
----------------------------------------------|
----------------------------------------------|
--------------------------------------<>7-----|
-------------5-------------4------<>7-----<>7-|
--------5h-7----------5h-7----<>7-------------|
--0--0----------0--0--------------------------|


  PM PM         PM PM         PM PM       
  S  S  S  S E  S  S  S  S E  S  S  S  S  
-----------------------------------------|
-----------------------------------------|
-----------------------------------------|
-------------5-------------4-------------|
--------5h-7----------5h-7----------5h-7-|
--0--0----------0--0----------0--0-------|


  PM PM         PM PM           NH  NH  NH  NH   
  S  S  S  S E  S  S  S  S E    S   S   S   S    
-----------------------------------------------||
-----------------------------------------------||
--------------------------------------<>5-----*||
-------------5-------------4------<>5-----<>5-*||
--------5h-7----------5h-7----<>5--------------||
--0--0----------0--0---------------------------||


  PM PM PM PM PM PM PM PM PM PM PM PM PM PM PM PM  
  S  S  S  S  S  S  S  S  S  S  S  S  S  S  S  S   
--------------------------------------------------|
--------------------------------------------------|
--------------------------------------------------|
--2--2--2--2--2--2--2--2--2--2--2--2--2--2--2--2--|
--2--2--2--2--2--2--2--2--2--2--2--2--2--2--2--2--|
--0--0--0--0--0--0--0--0--0--0--0--0--0--0--0--0--|


  PM PM PM PM PM PM PM PM PM PM PM PM PM PM PM PM  
  S  S  S  S  S  S  S  S  S  S  S  S  S  S  S  S   
--------------------------------------------------|
--------------------------------------------------|
--------------------------------------------------|
--2--2--2--2--2--2--2--2--2--2--2--2--2--2--2--2--|
--2--2--2--2--2--2--2--2--2--2--2--2--2--2--2--2--|
--0--0--0--0--0--0--0--0--0--0--0--0--0--0--0--0--|


  PM PM PM PM PM PM PM PM PM PM PM PM PM PM PM PM  
  S  S  S  S  S  S  S  S  S  S  S  S  S  S  S  S   
--------------------------------------------------|
--------------------------------------------------|
--------------------------------------------------|
--5--5--5--5--5--5--5--5--5--5--5--5--5--5--5--5--|
--5--5--5--5--5--5--5--5--5--5--5--5--5--5--5--5--|
--3--3--3--3--3--3--3--3--3--3--3--3--3--3--3--3--|


  PM PM PM PM PM PM PM PM PM PM PM PM PM PM PM PM  
  S  S  S  S  S  S  S  S  S  S  S  S  S  S  S  S   
--------------------------------------------------|
--------------------------------------------------|
--------------------------------------------------|
--7--7--7--7--7--7--7--7--7--7--7--7--7--7--7--7--|
--7--7--7--7--7--7--7--7--7--7--7--7--7--7--7--7--|
--5--5--5--5--5--5--5--5--5--5--5--5--5--5--5--5--|


  S S S S S S S S S S S S S S S S    S S S S S S S S S S S S S S S S  
----------------------------------|----------------------------------|
----------------------------------|----------------------------------|
----------------------------------|----------------------------------|
--2-2-2-2-2-2-2-2-2-2-2-2-2-2-2-2-|--2-2-2-2-2-2-2-2-2-2-2-2-2-2-2-2-|
--2-2-2-2-2-2-2-2-2-2-2-2-2-2-2-2-|--2-2-2-2-2-2-2-2-2-2-2-2-2-2-2-2-|
--0-0-0-0-0-0-0-0-0-0-0-0-0-0-0-0-|--0-0-0-0-0-0-0-0-0-0-0-0-0-0-0-0-|


  S S S S S S S S S S S S S S S S    S S S S S S S S S S S S S S S S  
----------------------------------|----------------------------------|
----------------------------------|----------------------------------|
----------------------------------|----------------------------------|
--5-5-5-5-5-5-5-5-5-5-5-5-5-5-5-5-|--7-7-7-7-7-7-7-7-5-5-5-5-4-4-4-4-|
--5-5-5-5-5-5-5-5-5-5-5-5-5-5-5-5-|--7-7-7-7-7-7-7-7-5-5-5-5-4-4-4-4-|
--3-3-3-3-3-3-3-3-3-3-3-3-3-3-3-3-|--5-5-5-5-5-5-5-5-3-3-3-3-2-2-2-2-|


  PM         PM PM                     PM         PM PM                   
  S  S S S S S  S  S S S S S S S E     S  S S S S S  S  S S S S S S S E   
------------------------------------|------------------------------------|
------------------------------------|------------------------------------|
------------------------------------|------------------------------------|
--2--2-------2--2----------------2--|--2--2-------2--2----------------2--|
--2--2-------2--2----------------2--|--2--2-------2--2----------------2--|
--0--0-------0--0----------------0--|--0--0-------0--0----------------0--|


  PM         PM PM         PM PM PM   PM  
  S  S S S S S  S  S S S S S  S  S  S S   
-----------------------------------------|
-----------------------------------------|
-----------------------------------------|
--5----------5--5----------5--5--5----5--|
--5----------5--5----------5--5--5----5--|
--3----------3--3----------3--3--3----3--|


  PM         PM PM         PM PM PM   PM  
  S  S S S S S  S  S S S S S  S  S  S S   
-----------------------------------------|
-----------------------------------------|
-----------------------------------------|
--4----------4--4----------4--4--4----2--|
--5----------5--5----------5--5--5----2--|
--2----------2--2----------2--2--2----0--|


   S  S  S  S  S  S  S  S  S  S  S  S  S  S  S  S  
-----12----12----12----12----12----12----12----12-|
--12----10----12----10----12----10----12----10----|
--------------------------------------------------|
--------------------------------------------------|
--------------------------------------------------|
--------------------------------------------------|


   S  S  S  S  S  S  S  S  S  S  S  S  S  S  S  S  
-----12----12----12----12----12----12----12----12-|
--12----10----12----10----12----10----12----10----|
--------------------------------------------------|
--------------------------------------------------|
--------------------------------------------------|
--------------------------------------------------|


  S  S S  S S  S S  S S  S S  S S  S S  S    S S S S S S S S S S S S S  S S  S  
------------------------------------------|------------------------------------|
----10---10---12---12---10---10---12---12-|----7---7---8---8---7---7---10---10-|
--9----9----9----9----9----9----9----9----|--7---7---7---7---7---7---7----7----|
------------------------------------------|------------------------------------|
------------------------------------------|------------------------------------|
------------------------------------------|------------------------------------|


  PM PM         PM PM         PM PM       
  S  S  S  S E  S  S  S  S E  S  S  S  S  
-----------------------------------------|
-----------------------------------------|
-----------------------------------------|
-------------5-------------4-------------|
--------5h-7----------5h-7----------5h-7-|
--0--0----------0--0----------0--0-------|


  PM PM         PM PM           NH  NH  NH  NH                                  
  S  S  S  S E  S  S  S  S E    S   S   S   S      E  S S S S E  S S E  S S E   
----------------------------------------------||-------------------------------|
----------------------------------------------||-------------------------------|
--------------------------------------<>7-----||*--7--7-7-7-7-7--7-7-7--7-7-7--|
-------------5-------------4------<>7-----<>7-||*--5--5-5-5-5-5--5-5-5--5-5-5--|
--------5h-7----------5h-7----<>7-------------||---7--7-7-7-7-7--7-7-7--7-7-7--|
--0--0----------0--0--------------------------||-------------------------------|


  E  S S S S E  S S E  S S E     E  S S S S E  S S E  S S E   
------------------------------|------------------------------|
------------------------------|----------------3-3-3--3-3-3--|
--7--7-7-7-7-7--7-7-7--7-7-7--|--0--0-0-0-0-0--0-0-0--0-0-0--|
--4--4-4-4-4-4--4-4-4--4-4-4--|--2--2-2-2-2-2--2-2-2--2-2-2--|
--5--5-5-5-5-5--5-5-5--5-5-5--|--3--3-3-3-3-3--3-3-3--3-3-3--|
------------------------------|------------------------------|


  E  S S S S E   S  S  S  S  S  S  S  S       E  S S S S E  S S E  S S E   
-----------------------------------------||-------------------------------|
-----------------------------------------||-------------------------------|
--7--7-7-7-7-7--11-11-11-11-12-12-12-12-*||*--7--7-7-7-7-7--7-7-7--7-7-7--|
--4--4-4-4-4-4---x--x--x--x--x--x--x--x-*||*--5--5-5-5-5-5--5-5-5--5-5-5--|
--5--5-5-5-5-5---9--9--9--9-10-10-10-10--||---7--7-7-7-7-7--7-7-7--7-7-7--|
-----------------------------------------||-------------------------------|


  E  S S S S E  S S E  S S E     E  S S S S E  S S E  S S E   
------------------------------|------------------------------|
------------------------------|----------------3-3-3--3-3-3--|
--7--7-7-7-7-7--7-7-7--7-7-7--|--0--0-0-0-0-0--0-0-0--0-0-0--|
--4--4-4-4-4-4--4-4-4--4-4-4--|--2--2-2-2-2-2--2-2-2--2-2-2--|
--5--5-5-5-5-5--5-5-5--5-5-5--|--3--3-3-3-3-3--3-3-3--3-3-3--|
------------------------------|------------------------------|


                                              PM PM       PM       PM         
  E  S S S S E   S  S  S  S  S  S  S  S       S  S  E  E  S  E  E  S  S S E   
-----------------------------------------||----------------------------------|
-----------------------------------------||---------3--------3--------3-3----|
--7--7-7-7-7-7--11-11-11-11-12-12-12-12-*||*-----------4--------4---------4--|
--4--4-4-4-4-4---x--x--x--x--x--x--x--x-*||*--2--2--------2--------2---------|
--5--5-5-5-5-5---9--9--9--9-10-10-10-10--||----------------------------------|
-----------------------------------------||----------------------------------|


  PM PM       PM       PM           PM PM       PM       PM         
  S  S  E  E  S  E  E  S  S S E     S  S  E  E  S  E  E  S  S S E   
---------------------------------|---------------------------------|
--------3--------3--------3-3----|--------3--------3--------3-3----|
-----------4--------4---------4--|-----------4--------4---------4--|
--0--0--------0--------0---------|--2--2--------2--------2---------|
---------------------------------|---------------------------------|
---------------------------------|---------------------------------|


  PM PM       PM       PM                                               
  S  S  E  E  S  E  E  S  S S E        S S S S S S S S S S S S S S S S  
----------------------------------||-----------------------------------|
--------3--------3--------3-3-----||-----------------------------------|
-----------4--------4---------4--*||*----------------------------------|
--0--0--------0--------0---------*||*--2-2-2-2-2-2-2-2-2-2-2-2-2-2-2-2-|
----------------------------------||---2-2-2-2-2-2-2-2-2-2-2-2-2-2-2-2-|
----------------------------------||---0-0-0-0-0-0-0-0-0-0-0-0-0-0-0-0-|


  S S S S S S S S S S S S S S S S    S S S S S S S S S S S S S S S S  
----------------------------------|----------------------------------|
----------------------------------|----------------------------------|
----------------------------------|----------------------------------|
--2-2-2-2-2-2-2-2-2-2-2-2-2-2-2-2-|--5-5-5-5-5-5-5-5-5-5-5-5-5-5-5-5-|
--2-2-2-2-2-2-2-2-2-2-2-2-2-2-2-2-|--5-5-5-5-5-5-5-5-5-5-5-5-5-5-5-5-|
--0-0-0-0-0-0-0-0-0-0-0-0-0-0-0-0-|--3-3-3-3-3-3-3-3-3-3-3-3-3-3-3-3-|


                                       PM         PM PM                   
  S S S S S S S S S S S S S S S S      S  S S S S S  S  S S S S S S S E   
-----------------------------------||------------------------------------|
-----------------------------------||------------------------------------|
----------------------------------*||------------------------------------|
--7-7-7-7-7-7-7-7-5-5-5-5-4-4-4-4-*||--2--2-------2--2----------------2--|
--7-7-7-7-7-7-7-7-5-5-5-5-4-4-4-4--||--2--2-------2--2----------------2--|
--5-5-5-5-5-5-5-5-3-3-3-3-2-2-2-2--||--0--0-------0--0----------------0--|


  PM         PM PM                     PM         PM PM         PM PM PM   PM  
  S  S S S S S  S  S S S S S S S E     S  S S S S S  S  S S S S S  S  S  S S   
------------------------------------|-----------------------------------------|
------------------------------------|-----------------------------------------|
------------------------------------|-----------------------------------------|
--2--2-------2--2----------------2--|--5----------5--5----------5--5--5----5--|
--2--2-------2--2----------------2--|--5----------5--5----------5--5--5----5--|
--0--0-------0--0----------------0--|--3----------3--3----------3--3--3----3--|


  PM         PM PM         PM PM PM   PM  
  S  S S S S S  S  S S S S S  S  S  S S   
-----------------------------------------|
-----------------------------------------|
-----------------------------------------|
--4----------4--4----------4--4--4----2--|
--5----------5--5----------5--5--5----2--|
--2----------2--2----------2--2--2----0--|


   S  S  S  S  S  S  S  S  S  S  S  S  S  S  S  S  
-----12----12----12----12----12----12----12----12-|
--12----10----12----10----12----10----12----10----|
--------------------------------------------------|
--------------------------------------------------|
--------------------------------------------------|
--------------------------------------------------|


   S  S  S  S  S  S  S  S  S  S  S  S  S  S  S  S  
-----12----12----12----12----12----12----12----12-|
--12----10----12----10----12----10----12----10----|
--------------------------------------------------|
--------------------------------------------------|
--------------------------------------------------|
--------------------------------------------------|


  S  S S  S S  S S  S S  S S  S S  S S  S    S S S S S S S S S S S S S  S S  S  
------------------------------------------|------------------------------------|
----10---10---12---12---10---10---12---12-|----7---7---8---8---7---7---10---10-|
--9----9----9----9----9----9----9----9----|--7---7---7---7---7---7---7----7----|
------------------------------------------|------------------------------------|
------------------------------------------|------------------------------------|
------------------------------------------|------------------------------------|


  PM PM         PM PM         PM PM       
  S  S  S  S E  S  S  S  S E  S  S  S  S  
-----------------------------------------|
-----------------------------------------|
-----------------------------------------|
-------------5-------------4-------------|
--------5h-7----------5h-7----------5h-7-|
--0--0----------0--0----------0--0-------|


  PM PM         PM PM           NH  NH  NH  NH                                  
  S  S  S  S E  S  S  S  S E    S   S   S   S      E  S S S S E  S S E  S S E   
----------------------------------------------||-------------------------------|
----------------------------------------------||-------------------------------|
--------------------------------------<>7-----||*--7--7-7-7-7-7--7-7-7--7-7-7--|
-------------5-------------4------<>7-----<>7-||*--5--5-5-5-5-5--5-5-5--5-5-5--|
--------5h-7----------5h-7----<>7-------------||---7--7-7-7-7-7--7-7-7--7-7-7--|
--0--0----------0--0--------------------------||-------------------------------|


  E  S S S S E  S S E  S S E     E  S S S S E  S S E  S S E   
------------------------------|------------------------------|
------------------------------|----------------3-3-3--3-3-3--|
--7--7-7-7-7-7--7-7-7--7-7-7--|--0--0-0-0-0-0--0-0-0--0-0-0--|
--4--4-4-4-4-4--4-4-4--4-4-4--|--2--2-2-2-2-2--2-2-2--2-2-2--|
--5--5-5-5-5-5--5-5-5--5-5-5--|--3--3-3-3-3-3--3-3-3--3-3-3--|
------------------------------|------------------------------|


  E  S S S S E   S  S  S  S  S  S  S  S       E  S S S S E  S S E  S S E   
-----------------------------------------||-------------------------------|
-----------------------------------------||-------------------------------|
--7--7-7-7-7-7--11-11-11-11-12-12-12-12-*||*--7--7-7-7-7-7--7-7-7--7-7-7--|
--4--4-4-4-4-4---x--x--x--x--x--x--x--x-*||*--5--5-5-5-5-5--5-5-5--5-5-5--|
--5--5-5-5-5-5---9--9--9--9-10-10-10-10--||---7--7-7-7-7-7--7-7-7--7-7-7--|
-----------------------------------------||-------------------------------|


  E  S S S S E  S S E  S S E     E  S S S S E  S S E  S S E   
------------------------------|------------------------------|
------------------------------|----------------3-3-3--3-3-3--|
--7--7-7-7-7-7--7-7-7--7-7-7--|--0--0-0-0-0-0--0-0-0--0-0-0--|
--4--4-4-4-4-4--4-4-4--4-4-4--|--2--2-2-2-2-2--2-2-2--2-2-2--|
--5--5-5-5-5-5--5-5-5--5-5-5--|--3--3-3-3-3-3--3-3-3--3-3-3--|
------------------------------|------------------------------|


  E  S S S S E   S  S  S  S  S  S  S  S      W                 
-----------------------------------------||-------------------|
-----------------------------------------||--5----------------|
--7--7-7-7-7-7--11-11-11-11-12-12-12-12-*||--4----------------|
--4--4-4-4-4-4---x--x--x--x--x--x--x--x-*||--2----------------|
--5--5-5-5-5-5---9--9--9--9-10-10-10-10--||-------------------|
-----------------------------------------||-------------------|


  W                   W                   W                   W                 
-------------------|-------------------|-------------------|-------------------|
--L----------------|--L----------------|--L----------------|--L----------------|
--L----------------|--L----------------|--L----------------|--L----------------|
--L----------------|--L----------------|--L----------------|--L----------------|
-------------------|-------------------|-------------------|-------------------|
-------------------|-------------------|-------------------|-------------------|


  W                   W                   W                 
-------------------|-------------------|-------------------|
-------------------|--L----------------|--L----------------|
-------------------|--L----------------|--L----------------|
--L----------------|--L----------------|--L----------------|
-------------------|-------------------|-------------------|
-------------------|-------------------|-------------------|


    PM PM      PM      PM      PM      PM     
    S  S  S  S S  S  S S  S  S S  S  S S  E   
|--------------------------------------------|
|--------------------------------------------|
|*-------------------------------------------|
|*--------2s-0----3s-2----5s-3----2h-3----2--|
|--------------------------------------------|
|---1--1-------1-------1-------1-------1-----|


  PM PM      PM      PM                    
  S  S  S  S S  S  S S  S  S  S  S S S E   
------------------------------------------|
-------------------------------------3-5--|
--------2p-0----5p-4----2h-4p-2p-0-2------|
------------------------------------------|
--0--0-------0-------0--------------------|
------------------------------------------|


  PM PM      PM      PM      PM      PM     
  S  S  S  S S  S  S S  S  S S  S  S S  E   
-------------------------------------------|
-------------------------------------------|
-------------------------------------------|
--------2s-0----3s-2----5s-3----2h-3----2--|
-------------------------------------------|
--1--1-------1-------1-------1-------1-----|


  PM PM      PM      PM                         TP    TP    TP    TP    
  S  S  S  S S  S  S S  S  S  S  S S S E   4x   Q     Q     Q     Q     
-------------------------------------------||--------------------------|
-------------------------------------3-5---||--------------------------|
--------2p-0----5p-4----2h-4p-2p-0-2------*||*-------------------------|
------------------------------------------*||*--9----10----12----------|
--0--0-------0-------0---------------------||--------------------12----|
-------------------------------------------||--------------------------|


  TP    TP    TP    TP      TP    TP    TP    TP    
  Q     Q     Q     Q       Q     Q     Q     Q     
-------------------------|-------------------------|
-------------------------|-------------------------|
-------------------------|-------------------------|
--9----10----12----------|--9----10----12----------|
-------------------12----|-------------------12----|
-------------------------|-------------------------|


                                       TP    TP    TP    TP    
  E   E   E  E    E   E   E   E        Q     Q     Q     Q     
----------------------------------||--------------------------|
----------------------------------||--------------------------|
-------------9h--10p--9----------*||*-------------------------|
--9--10--12--------------12--10--*||*--9----10----12----10----|
----------------------------------||--------------------------|
----------------------------------||--------------------------|


  TP    TP    TP    TP      TP    TP    TP    TP      TP    TP    TP    TP    
  Q     Q     Q     Q       Q     Q     Q     Q       Q     Q     Q     Q     
-------------------------|-------------------------|-------------------------|
-------------------------|-------------------------|-------------------------|
-------------------------|-------------------------|-------------------------|
--9----10----12----10----|--9----10----12----10----|--9----10----12----10----|
-------------------------|-------------------------|-------------------------|
-------------------------|-------------------------|-------------------------|


                  W                   W                   Q    Q    Q    Q     
-------|-------|-------------------|-------------------|----------------------|
-------|-------|-------------------|-------------------|----------------------|
-------|-------|-------------------|-------------------|----------------------|
-------|-------|--7----------------|--L----------------|--L-------------------|
-------|-------|--7----------------|--L----------------|--L----L----L----L----|
-------|-------|--5----------------|-------------------|----------------------|


-------|-------|-------|-------||
-------|-------|-------|-------||
-------|-------|-------|-------||
-------|-------|-------|-------||
-------|-------|-------|-------||
-------|-------|-------|-------||



RHYTHM:

                              H         H          
D#||-------|-------|-------|----------------------|
A#||-------|-------|-------|----------------------|
F#||-------|-------|-------|----------------------|
C#||-------|-------|-------|----------------------|
G#||-------|-------|-------|----------------------|
D#||-------|-------|-------|-----------12s--------|


    PM PM         PM PM         PM PM       
    S  S  S  S E  S  S  S  S E  S  S  S  S  
|------------------------------------------|
|------------------------------------------|
|*-----------------------------------------|
|*-------------5-------------4-------------|
|---------5h-7----------5h-7----------5h-7-|
|---0--0----------0--0----------0--0-------|


  PM PM         PM PM         PM PM       
  S  S  S  S E  S  S  S  S E  S  S  S  S  
-----------------------------------------|
-----------------------------------------|
-----------------------------------------|
-------------5-------------4-------------|
--------5h-7----------5h-7----------5h-7-|
--0--0----------0--0----------0--0-------|


  PM PM         PM PM         PM PM       
  S  S  S  S E  S  S  S  S E  S  S  S  S  
-----------------------------------------|
-----------------------------------------|
-----------------------------------------|
-------------5-------------4-------------|
--------5h-7----------5h-7----------5h-7-|
--0--0----------0--0----------0--0-------|


  PM PM         PM PM         PM PM         
  S  S  S  S E  S  S  S  S E  S  S  S  S    
------------------------------------------||
------------------------------------------||
-----------------------------------------*||
-------------5-------------4-------------*||
--------5h-7----------5h-7----------5h-7--||
--0--0----------0--0----------0--0--------||


  PM PM         PM PM         PM PM       
  S  S  S  S E  S  S  S  S E  S  S  S  S  
-----------------------------------------|
-----------------------------------------|
-----------------------------------------|
-------------5-------------4-------------|
--------5h-7----------5h-7----------5h-7-|
--0--0----------0--0----------0--0-------|


  PM PM         PM PM         PM PM       
  S  S  S  S E  S  S  S  S E  S  S  S  S  
-----------------------------------------|
-----------------------------------------|
-----------------------------------------|
-------------5-------------4-------------|
--------5h-7----------5h-7----------5h-7-|
--0--0----------0--0----------0--0-------|


  PM PM         PM PM         PM PM       
  S  S  S  S E  S  S  S  S E  S  S  S  S  
-----------------------------------------|
-----------------------------------------|
-----------------------------------------|
-------------5-------------4-------------|
--------5h-7----------5h-7----------5h-7-|
--0--0----------0--0----------0--0-------|


  PM PM         PM PM         PM PM       
  S  S  S  S E  S  S  S  S E  S  S  S  S  
-----------------------------------------|
-----------------------------------------|
-----------------------------------------|
-------------5-------------4-------------|
--------5h-7----------5h-7----------5h-7-|
--0--0----------0--0----------0--0-------|


  PM PM         PM PM         PM PM       
  S  S  S  S E  S  S  S  S E  S  S  S  S  
-----------------------------------------|
-----------------------------------------|
-----------------------------------------|
-------------5-------------4-------------|
--------5h-7----------5h-7----------5h-7-|
--0--0----------0--0----------0--0-------|


  PM PM         PM PM         PM PM       
  S  S  S  S E  S  S  S  S E  S  S  S  S  
-----------------------------------------|
-----------------------------------------|
-----------------------------------------|
-------------5-------------4-------------|
--------5h-7----------5h-7----------5h-7-|
--0--0----------0--0----------0--0-------|


  PM PM         PM PM         PM PM       
  S  S  S  S E  S  S  S  S E  S  S  S  S  
-----------------------------------------|
-----------------------------------------|
-----------------------------------------|
-------------5-------------4-------------|
--------5h-7----------5h-7----------5h-7-|
--0--0----------0--0----------0--0-------|


  PM PM         PM PM         PM PM       
  S  S  S  S E  S  S  S  S E  S  S  S  S  
-----------------------------------------|
-----------------------------------------|
-----------------------------------------|
-------------5-------------4-------------|
--------5h-7----------5h-7----------5h-7-|
--0--0----------0--0----------0--0-------|


  PM         PM PM         PM PM PM   PM  
  S  S S S S S  S  S S S S S  S  S  S S   
-----------------------------------------|
-----------------------------------------|
-----------------------------------------|
--2----------2--2----------2--2--2----2--|
--2----------2--2----------2--2--2----2--|
--0----------0--0----------0--0--0----0--|


  PM         PM PM         PM PM PM   PM  
  S  S S S S S  S  S S S S S  S  S  S S   
-----------------------------------------|
-----------------------------------------|
-----------------------------------------|
--2----------2--2----------2--2--2----2--|
--2----------2--2----------2--2--2----2--|
--0----------0--0----------0--0--0----0--|


  PM         PM PM         PM PM PM   PM  
  S  S S S S S  S  S S S S S  S  S  S S   
-----------------------------------------|
-----------------------------------------|
-----------------------------------------|
--5----------5--5----------5--5--5----5--|
--5----------5--5----------5--5--5----5--|
--3----------3--3----------3--3--3----3--|


  PM         PM PM         PM PM PM   PM  
  S  S S S S S  S  S S S S S  S  S  S S   
-----------------------------------------|
-----------------------------------------|
-----------------------------------------|
--4----------4--4----------4--4--4----2--|
--5----------5--5----------5--5--5----2--|
--2----------2--2----------2--2--2----0--|


  PM         PM PM         PM PM PM   PM  
  S  S S S S S  S  S S S S S  S  S  S S   
-----------------------------------------|
-----------------------------------------|
-----------------------------------------|
--2----------2--2----------2--2--2----2--|
--2----------2--2----------2--2--2----2--|
--0----------0--0----------0--0--0----0--|


  PM         PM PM         PM PM PM   PM  
  S  S S S S S  S  S S S S S  S  S  S S   
-----------------------------------------|
-----------------------------------------|
-----------------------------------------|
--2----------2--2----------2--2--2----2--|
--2----------2--2----------2--2--2----2--|
--0----------0--0----------0--0--0----0--|


  PM         PM PM         PM PM PM   PM  
  S  S S S S S  S  S S S S S  S  S  S S   
-----------------------------------------|
-----------------------------------------|
-----------------------------------------|
--5----------5--5----------5--5--5----5--|
--5----------5--5----------5--5--5----5--|
--3----------3--3----------3--3--3----3--|


  PM         PM PM         PM PM PM   PM  
  S  S S S S S  S  S S S S S  S  S  S S   
-----------------------------------------|
-----------------------------------------|
-----------------------------------------|
--4----------4--4----------4--4--4----2--|
--5----------5--5----------5--5--5----2--|
--2----------2--2----------2--2--2----0--|


  > > > > PM PM PM PM > > > > PM PM PM PM  
  S S S S S  S  S  S  S S S S S  S  S  S   
------------------------------------------|
------------------------------------------|
------------------------------------------|
--2-2-2-2-2--2--2--2--2-2-2-2-2--2--2--2--|
--2-2-2-2-2--2--2--2--2-2-2-2-2--2--2--2--|
--0-0-0-0-0--0--0--0--0-0-0-0-0--0--0--0--|


   S  S  S  S  S  S  S  S  S  S  S  S  S  S  S  S  
--------------------------------------------------|
--------------------------------------------------|
--11-11-11-11-11-11-11-11-12-12-12-12-12-12-12-12-|
---x--x--x--x--x--x--x--x--x--x--x--x--x--x--x--x-|
---9--9--9--9--9--9--9--9-10-10-10-10-10-10-10-10-|
--------------------------------------------------|


    PM PM         PM PM         PM PM       
    S  S  S  S E  S  S  S  S E  S  S  S  S  
|------------------------------------------|
|------------------------------------------|
|*-----------------------------------------|
|*-------------5-------------4-------------|
|---------5h-7----------5h-7----------5h-7-|
|---0--0----------0--0----------0--0-------|


  PM PM         PM PM         PM PM       
  S  S  S  S E  S  S  S  S E  S  S  S  S  
-----------------------------------------|
-----------------------------------------|
-----------------------------------------|
-------------5-------------4-------------|
--------5h-7----------5h-7----------5h-7-|
--0--0----------0--0----------0--0-------|


  PM PM         PM PM         PM PM       
  S  S  S  S E  S  S  S  S E  S  S  S  S  
-----------------------------------------|
-----------------------------------------|
-----------------------------------------|
-------------5-------------4-------------|
--------5h-7----------5h-7----------5h-7-|
--0--0----------0--0----------0--0-------|


  PM PM         PM PM         PM PM                                     
  S  S  S  S E  S  S  S  S E  S  S  S  S       E  E  E  E  E  E  E  E   
------------------------------------------||---------------------------|
------------------------------------------||---------------------------|
-----------------------------------------*||*--9--9--9--9--9--9--9--9--|
-------------5-------------4-------------*||*--9--9--9--9--9--9--9--9--|
--------5h-7----------5h-7----------5h-7--||---7--7--7--7--7--7--7--7--|
--0--0----------0--0----------0--0--------||---------------------------|


  E  E  E  E  E  E  E  E     E  E  E  E  E  E  E  E   
--------------------------|--------------------------|
--------------------------|--------------------------|
--7--7--7--7--7--7--7--7--|--5--5--5--5--5--5--5--5--|
--7--7--7--7--7--7--7--7--|--5--5--5--5--5--5--5--5--|
--5--5--5--5--5--5--5--5--|--3--3--3--3--3--3--3--3--|
--------------------------|--------------------------|


                                PM PM       PM       PM         
  E  E  E  E  E  E  E  E        S  S  E  E  S  E  E  S  S S E   
---------------------------||----------------------------------|
---------------------------||----------------------------------|
--7--7--7--7--7--7--7--7--*||*--------7--------7--------7-7----|
--7--7--7--7--7--7--7--7--*||*-----------5--------5---------5--|
--5--5--5--5--5--5--5--5---||---7--7--------7--------7---------|
---------------------------||----------------------------------|


  PM PM       PM       PM           PM PM       PM       PM         
  S  S  E  E  S  E  E  S  S S E     S  S  E  E  S  E  E  S  S S E   
---------------------------------|---------------------------------|
---------------------------------|---------------------------------|
--------7--------7--------7-7----|--------7--------7--------7-7----|
-----------5--------5---------5--|-----------5--------5---------5--|
--5--5--------5--------5---------|--7--7--------7--------7---------|
---------------------------------|---------------------------------|


  PM PM       PM       PM              PM PM       PM       PM         
  S  S  E  E  S  E  E  S  S S E        S  S  E  E  S  E  E  S  S S E   
----------------------------------||----------------------------------|
----------------------------------||----------------------------------|
--------7--------7--------7-7----*||*--------7--------7--------7-7----|
-----------5--------5---------5--*||*-----------5--------5---------5--|
--5--5--------5--------5----------||---7--7--------7--------7---------|
----------------------------------||----------------------------------|


  PM PM       PM       PM           PM PM       PM       PM         
  S  S  E  E  S  E  E  S  S S E     S  S  E  E  S  E  E  S  S S E   
---------------------------------|---------------------------------|
---------------------------------|---------------------------------|
--------7--------7--------7-7----|--------7--------7--------7-7----|
-----------5--------5---------5--|-----------5--------5---------5--|
--5--5--------5--------5---------|--7--7--------7--------7---------|
---------------------------------|---------------------------------|


  PM PM       PM       PM             PM         PM PM         PM PM PM   PM  
  S  S  E  E  S  E  E  S  S S E       S  S S S S S  S  S S S S S  S  S  S S   
----------------------------------||-----------------------------------------|
----------------------------------||-----------------------------------------|
--------7--------7--------7-7----*||-----------------------------------------|
-----------5--------5---------5--*||--2----------2--2----------2--2--2----2--|
--5--5--------5--------5----------||--2----------2--2----------2--2--2----2--|
----------------------------------||--0----------0--0----------0--0--0----0--|


  PM         PM PM         PM PM PM   PM  
  S  S S S S S  S  S S S S S  S  S  S S   
-----------------------------------------|
-----------------------------------------|
-----------------------------------------|
--2----------2--2----------2--2--2----2--|
--2----------2--2----------2--2--2----2--|
--0----------0--0----------0--0--0----0--|


  PM         PM PM         PM PM PM   PM  
  S  S S S S S  S  S S S S S  S  S  S S   
-----------------------------------------|
-----------------------------------------|
-----------------------------------------|
--5----------5--5----------5--5--5----5--|
--5----------5--5----------5--5--5----5--|
--3----------3--3----------3--3--3----3--|


  PM         PM PM         PM PM PM   PM  
  S  S S S S S  S  S S S S S  S  S  S S   
-----------------------------------------|
-----------------------------------------|
-----------------------------------------|
--4----------4--4----------4--4--4----2--|
--5----------5--5----------5--5--5----2--|
--2----------2--2----------2--2--2----0--|


  PM         PM PM         PM PM PM   PM  
  S  S S S S S  S  S S S S S  S  S  S S   
-----------------------------------------|
-----------------------------------------|
-----------------------------------------|
--2----------2--2----------2--2--2----2--|
--2----------2--2----------2--2--2----2--|
--0----------0--0----------0--0--0----0--|


  PM         PM PM         PM PM PM   PM  
  S  S S S S S  S  S S S S S  S  S  S S   
-----------------------------------------|
-----------------------------------------|
-----------------------------------------|
--2----------2--2----------2--2--2----2--|
--2----------2--2----------2--2--2----2--|
--0----------0--0----------0--0--0----0--|


  PM         PM PM         PM PM PM   PM  
  S  S S S S S  S  S S S S S  S  S  S S   
-----------------------------------------|
-----------------------------------------|
-----------------------------------------|
--5----------5--5----------5--5--5----5--|
--5----------5--5----------5--5--5----5--|
--3----------3--3----------3--3--3----3--|


  PM         PM PM         PM PM PM   PM  
  S  S S S S S  S  S S S S S  S  S  S S   
-----------------------------------------|
-----------------------------------------|
-----------------------------------------|
--4----------4--4----------4--4--4----2--|
--5----------5--5----------5--5--5----2--|
--2----------2--2----------2--2--2----0--|


  > > > > PM PM PM PM > > > > PM PM PM PM  
  S S S S S  S  S  S  S S S S S  S  S  S   
------------------------------------------|
------------------------------------------|
------------------------------------------|
--2-2-2-2-2--2--2--2--2-2-2-2-2--2--2--2--|
--2-2-2-2-2--2--2--2--2-2-2-2-2--2--2--2--|
--0-0-0-0-0--0--0--0--0-0-0-0-0--0--0--0--|


   S  S  S  S  S  S  S  S  S  S  S  S  S  S  S  S  
--------------------------------------------------|
--------------------------------------------------|
--11-11-11-11-11-11-11-11-12-12-12-12-12-12-12-12-|
---x--x--x--x--x--x--x--x--x--x--x--x--x--x--x--x-|
---9--9--9--9--9--9--9--9-10-10-10-10-10-10-10-10-|
--------------------------------------------------|


    PM PM         PM PM         PM PM       
    S  S  S  S E  S  S  S  S E  S  S  S  S  
|------------------------------------------|
|------------------------------------------|
|*-----------------------------------------|
|*-------------5-------------4-------------|
|---------5h-7----------5h-7----------5h-7-|
|---0--0----------0--0----------0--0-------|


  PM PM         PM PM         PM PM       
  S  S  S  S E  S  S  S  S E  S  S  S  S  
-----------------------------------------|
-----------------------------------------|
-----------------------------------------|
-------------5-------------4-------------|
--------5h-7----------5h-7----------5h-7-|
--0--0----------0--0----------0--0-------|


  PM PM         PM PM         PM PM       
  S  S  S  S E  S  S  S  S E  S  S  S  S  
-----------------------------------------|
-----------------------------------------|
-----------------------------------------|
-------------5-------------4-------------|
--------5h-7----------5h-7----------5h-7-|
--0--0----------0--0----------0--0-------|


  PM PM         PM PM         PM PM                                     
  S  S  S  S E  S  S  S  S E  S  S  S  S       E  E  E  E  E  E  E  E   
------------------------------------------||---------------------------|
------------------------------------------||---------------------------|
-----------------------------------------*||*--9--9--9--9--9--9--9--9--|
-------------5-------------4-------------*||*--9--9--9--9--9--9--9--9--|
--------5h-7----------5h-7----------5h-7--||---7--7--7--7--7--7--7--7--|
--0--0----------0--0----------0--0--------||---------------------------|


  E  E  E  E  E  E  E  E     E  E  E  E  E  E  E  E   
--------------------------|--------------------------|
--------------------------|--------------------------|
--7--7--7--7--7--7--7--7--|--5--5--5--5--5--5--5--5--|
--7--7--7--7--7--7--7--7--|--5--5--5--5--5--5--5--5--|
--5--5--5--5--5--5--5--5--|--3--3--3--3--3--3--3--3--|
--------------------------|--------------------------|


  E  E  E  E  E  E  E  E       W                   W                 
---------------------------||-------------------|-------------------|
---------------------------||-------------------|-------------------|
--7--7--7--7--7--7--7--7--*||-------------------|-------------------|
--7--7--7--7--7--7--7--7--*||--2----------------|--L----------------|
--5--5--5--5--5--5--5--5---||--2----------------|--L----------------|
---------------------------||--0----------------|--L----------------|


  W                   W                   E  S S S E  S S S S S S S S S  
-------------------|-------------------|--------------------------------|
-------------------|-------------------|--------------------------------|
-------------------|-------------------|--------------------------------|
--L----------------|--L----------------|--3--3-3-3-3--3-3-3-3-3-5-5-5-5-|
--L----------------|--L----------------|--3--3-3-3-3--3-3-3-3-3-5-5-5-5-|
--L----------------|--L----------------|--1--1-1-1-1--1-1-1-1-1-3-3-3-3-|


  E  S S S S E  S S S S S S S S    E  S S S E  S S S S S S S S S  
--------------------------------|--------------------------------|
--------------------------------|--------------------------------|
--------------------------------|--------------------------------|
--7--7-7-7-7-7--7-7-7-7-7-7-5-5-|--3--3-3-3-3--3-3-3-3-3-5-5-5-5-|
--7--7-7-7-7-7--7-7-7-7-7-7-5-5-|--3--3-3-3-3--3-3-3-3-3-5-5-5-5-|
--5--5-5-5-5-5--5-5-5-5-5-5-3-3-|--1--1-1-1-1--1-1-1-1-1-3-3-3-3-|


  E  S S S S E  S S S S S S S S      E  S S S E  S S S S S S S S S  
--------------------------------||---------------------------------|
--------------------------------||---------------------------------|
--------------------------------||*--------------------------------|
--7--7-7-7-7-7--7-7-7-7-7-7-5-5-||*--3--3-3-3-3--3-3-3-3-3-5-5-5-5-|
--7--7-7-7-7-7--7-7-7-7-7-7-5-5-||---3--3-3-3-3--3-3-3-3-3-5-5-5-5-|
--5--5-5-5-5-5--5-5-5-5-5-5-3-3-||---1--1-1-1-1--1-1-1-1-1-3-3-3-3-|


  E  S S S S E  S S S S S S S S    E  S S S E  S S S S S S S S S  
--------------------------------|--------------------------------|
--------------------------------|--------------------------------|
--------------------------------|--------------------------------|
--7--7-7-7-7-7--7-7-7-7-7-7-5-5-|--3--3-3-3-3--3-3-3-3-3-5-5-5-5-|
--7--7-7-7-7-7--7-7-7-7-7-7-5-5-|--3--3-3-3-3--3-3-3-3-3-5-5-5-5-|
--5--5-5-5-5-5--5-5-5-5-5-5-3-3-|--1--1-1-1-1--1-1-1-1-1-3-3-3-3-|


  E  S S S S E  S S S S S S S S  4x   E  S S S E  S S S S S S S S S  
---------------------------------||---------------------------------|
---------------------------------||---------------------------------|
--------------------------------*||*--------------------------------|
--7--7-7-7-7-7--7-7-7-7-7-7-5-5-*||*--3--3-3-3-3--3-3-3-3-3-5-5-5-5-|
--7--7-7-7-7-7--7-7-7-7-7-7-5-5--||---3--3-3-3-3--3-3-3-3-3-5-5-5-5-|
--5--5-5-5-5-5--5-5-5-5-5-5-3-3--||---1--1-1-1-1--1-1-1-1-1-3-3-3-3-|


  E  S S S S E  S S S S S S S S    E  S S S E  S S S S S S S S S  
--------------------------------|--------------------------------|
--------------------------------|--------------------------------|
--------------------------------|--------------------------------|
--7--7-7-7-7-7--7-7-7-7-7-7-5-5-|--3--3-3-3-3--3-3-3-3-3-5-5-5-5-|
--7--7-7-7-7-7--7-7-7-7-7-7-5-5-|--3--3-3-3-3--3-3-3-3-3-5-5-5-5-|
--5--5-5-5-5-5--5-5-5-5-5-5-3-3-|--1--1-1-1-1--1-1-1-1-1-3-3-3-3-|


  E  S S S S E  S S S S S S S S       W                   Q    Q    Q    Q     
---------------------------------||--------------------|----------------------|
---------------------------------||--------------------|----------------------|
--------------------------------*||*-------------------|----------------------|
--7--7-7-7-7-7--7-7-7-7-7-7-5-5-*||*--3----------------|----------------------|
--7--7-7-7-7-7--7-7-7-7-7-7-5-5--||---3----------------|----------------------|
--5--5-5-5-5-5--5-5-5-5-5-5-3-3--||---1----------------|----------------------|


  TP         TP           TP         TP           TP         TP         
  Q    Q     Q    Q       Q    Q     Q    Q       Q    Q     Q    Q     
--7----8----10----8----|--7----8----10----8----|--7----8----10----8----|
-----------------------|-----------------------|-----------------------|
-----------------------|-----------------------|-----------------------|
--L--------------------|--L--------------------|--L--------------------|
--L--------------------|--L--------------------|--L--------------------|
--L--------------------|--L--------------------|--L--------------------|


  TP         TP                                                 
  Q    Q     Q    Q       W                   W                 
--7----8----10----8----|-------------------|-------------------|
-----------------------|-------------------|-------------------|
-----------------------|--2----------------|-------------------|
--L--------------------|--2----------------|-------------------|
--L--------------------|--0----------------|--L----------------|
--L--------------------|-------------------|-------------------|


  W                   W                                                         
-------------------|-------------------|-------------------|-------------------|
-------------------|-------------------|-------------------|-------------------|
-------------------|-------------------|-------------------|-------------------|
-------------------|-------------------|-------------------|-------------------|
--L----------------|--L----------------|-------------------|-------------------|
-------------------|-------------------|-------------------|-------------------|


-------------------||
-------------------||
-------------------||
-------------------||
-------------------||
-------------------||





Duration Legend
---------------
W - whole
H - half
Q - quarter
E - 8th
S - 16th
T - 32nd
X - 64th
comments
We did not receive enough feedback on this tab! Please rate:
print report bad tab
1 2 3 4 5
I want to post or [tab]
guest
You may want to rate the tab now too:
select rating
Please do not post tabs as comments. Select "correction" instead!