Oops, an error
Loading. Please wait.

Im My Own Master Now Blade Wolf Lq - 84i Theme Tab

1,720 views 18 this week
no commentswrite comment
1 2 3 4 5
excellent!
x 3
add to favorites launch autoscroll
font size
0
reset
Autoscroll
+/-
esc
set tempo
stop
Contributor
Difficulty
intermediate
WARNING: You are trying to view
                                    content from Ultimate-Guitar.com
                                    in an unauthorized application,
                                    which is prohibited.

                                    Please use an official Ultimate
                                    Guitar Tabs application for iPhone,
                                    iPad or Android to access legitimate
                                    chords, guitar, bass, and drum tabs
                                    from Ultimate-Guitar.com database.

                                    Type "ultimate guitar tabs" in Apple
                                    App Store's or Android Market's
                                    search to find the application.
                I'm My Own Master Now                   


Youtube.com/KevGuitarTutor             Facebook.com/KevGuitarTutor


I was only going to upload the tab for Guitar pro. But seeing as my video as gotten pretty popular. 
I Imagine some people will need the Text form.
Here ya go!

To see my video of me playing this tab, check here => http://www.youtube.com/watch?v=k7YzqvkSbqk

The next tab ill do from rising will be "The only thing i know for real" Sams theme. Stay tuned!
##################Guitar One########################



     ^               ^               ^             
     H.              H.              H.            
E||--0------------|--0------------|--1------------|
B||--1------------|--1------------|--1------------|
G||--2------------|--2------------|--2------------|
D||--2------------|--2------------|--3------------|
A||--0------------|--0------------|--3------------|
E||---------------|---------------|---------------|


  ^               ^               ^             
  H.              H.              H.            
--3------------|--0------------|--0------------|
--3------------|--1------------|--1------------|
--0------------|--2------------|--2------------|
--0------------|--2------------|--2------------|
--2------------|--0------------|--0------------|
---------------|---------------|---------------|


  ^               ^               ^             
  H.              H.              H.            
--1------------|--3------------|--0------------|
--1------------|--3------------|--1------------|
--2------------|--0------------|--2------------|
--3------------|--0------------|--2------------|
--3------------|--2------------|--0------------|
---------------|---------------|---------------|


  ^               ^               ^             
  H.              H.              H.            
--0------------|--1------------|--3------------|
--1------------|--1------------|--3------------|
--2------------|--2------------|--0------------|
--2------------|--3------------|--0------------|
--0------------|--3------------|--2------------|
---------------|---------------|---------------|


  ^                               
  Q.        S S S E  E.  S S S S  
--0------|-----------------------|
--1------|--------0------0-1-0---|
--2------|------2----2---------2-|
--2------|----2------------------|
--0------|--0--------------------|
---------|-----------------------|


  S S S E  E.  S S S S    S S S E  E.  S S S S  
-----------------------|-----------------------|
--------0------0-1-0---|--------0------0-1-0---|
------2----2---------2-|------2----2---------2-|
----2------------------|----2------------------|
--0--------------------|-----------------------|
-----------------------|--1--------------------|


  S S S E  E.  S S S S    S S S E  E.  S S S S  
-----------------------|-----------------------|
--------0------1-3-1-0-|--------0------0-1-0---|
------2----2-----------|------2----2---------2-|
----2------------------|----2------------------|
-----------------------|--0--------------------|
--3--------------------|-----------------------|


  S S S E  E.  S S S S    S S S E  E.  S S S S  
-----------------------|-----------------------|
--------0------0-1-0---|--------0------0-1-0---|
------2----2---------2-|------2----2---------2-|
----2------------------|----2------------------|
--0--------------------|-----------------------|
-----------------------|--1--------------------|


  S S S E  E.  S S S S    S S S E  E.  S S S S  
-----------------------|-----------------------|
--------0------1-3-1-0-|--------0------0-1-0---|
------2----2-----------|------2----2---------2-|
----2------------------|----2------------------|
-----------------------|--0--------------------|
--3--------------------|-----------------------|


  S S S E  E.  S S S S    S S S E   E.  S S S S  
-----------------------|------------------------|
--------0------0-1-0---|--------0h--1---L-L-L-L-|
------2----2---------2-|------2-----------------|
----2------------------|----2-------------------|
--0--------------------|--0---------------------|
-----------------------|------------------------|


  H.              S S S E   E.  S S S S  
---------------|------------------------|
--L------------|--------0h--1---L-L-L-L-|
---------------|------2-----------------|
---------------|----2-------------------|
---------------|--0---------------------|
---------------|------------------------|


  E.  E.  E.  E.     S S S E   E.  S S S S  
------------------|------------------------|
------------------|--------0h--1---L-L-L-L-|
--5---5-----------|------2-----------------|
--5---5---5---5---|----2-------------------|
--3---3---5---5---|--0---------------------|
----------3---3---|------------------------|


  H.              S S S E   E.  S S S S  
---------------|------------------------|
--L------------|--------0h--1---L-L-L-L-|
---------------|------2-----------------|
---------------|----2-------------------|
---------------|--0---------------------|
---------------|------------------------|


  E.  E.  E.  E.     E.  Q    S E   E   
------------------|--------------------|
------------------|------6------6S--8--|
--5---5-----------|--------------------|
--5---5---5---5---|------3------3S--5--|
--3---3---5---5---|--------------------|
----------3---3---|--------------------|


  E.  Q    S E    E     E.  Q    S E   E   
---------------------|--------------------|
------8------8S--10--|------6------6S--8--|
---------------------|--------------------|
------5------5S---7--|------3------3S--5--|
---------------------|--------------------|
---------------------|--------------------|


  E.  Q    S S S S S    E.  Q    S E   E   
---------------------|--------------------|
------8--------------|------6------6S--8--|
-------------4-5-4---|--------------------|
------5------------7-|------3------3S--5--|
---------------------|--------------------|
---------------------|--------------------|


  E.  Q    S E    E     E.  Q    S E   E   
---------------------|--------------------|
------8------8S--10--|------6------6S--8--|
---------------------|--------------------|
------5------5S---7--|------3------3S--5--|
---------------------|--------------------|
---------------------|--------------------|


  E.   E.  E.   E.      H.            
-----------8---10---|--12------------|
--8---10------------|----------------|
-----------5----7---|---9------------|
--5----7------------|----------------|
--------------------|----------------|
--------------------|----------------|


  Q.     E  E  E     H.              Q.     E  E  E   
------------------|---------------|------------------|
------------------|---------------|------------------|
---------9--7--5--|--9------------|---------9--7--4--|
------------------|---------------|------------------|
---------7--5--3--|--7------------|---------7--5--2--|
------------------|---------------|------------------|


  Q.     E  E  E     Q.     E  E  E     H.            
------------------|------------------|---------------|
------------------|------------------|---------------|
---------5--7--9--|---------7--5--4--|---------------|
------------------|------------------|---------------|
---------3--5--7--|---------5--3--2--|---------------|
------------------|------------------|---------------|


  Q.     E  E  E     H.              Q.     E  E  E   
------------------|---------------|------------------|
------------------|---------------|------------------|
---------9--5--7--|---------------|---------9--7--4--|
------------------|---------------|------------------|
---------7--3--5--|---------------|---------7--5--2--|
------------------|---------------|------------------|


  Q.     E  E  E     Q.     E  E  E     H.            
------------------|------------------|---------------|
------------------|------------------|---------------|
---------5--7--9--|---------7--5--4--|---------------|
------------------|------------------|---------------|
---------3--5--7--|---------5--3--2--|---------------|
------------------|------------------|---------------|


  Q.     E  E  E     E.   E  S  E   E   E   
------------------|------------------------|
------------------|------10----10--12--13--|
---------9--5--7--|--9-------9-------------|
------------------|------------------------|
---------7--3--5--|------------------------|
------------------|------------------------|


   Q.        E   E   T   S.   E.   E  S  E   E   E   
---------------------------|------------------------|
--13br------12--13--10S-12-|------10----10--12--13--|
---------------------------|--9-------9-------------|
---------------------------|------------------------|
---------------------------|------------------------|
---------------------------|------------------------|


   E.   E.   E.   E.     E.   E  S  E   E   E   
------------12---15---|------------------------|
--15---13-------------|------10----10--12--13--|
----------------------|--9-------9-------------|
----------------------|------------------------|
----------------------|------------------------|
----------------------|------------------------|


   Q       E   Q       E      E.   E.   E   E   E   
----------------------12--|--15---17---17--15--13--|
--13br----15--15br--------|------------------------|
--------------------------|------------------------|
--------------------------|------------------------|
--------------------------|------------------------|
--------------------------|------------------------|


   S  S  S  S  S  S  S  T  T  S  S  S  S  
--12-15-13-12----13-12-13-12-------------|
--------------15-------------15-13-12-13-|
-----------------------------------------|
-----------------------------------------|
-----------------------------------------|
-----------------------------------------|


   H.                    E.  E.    Q    E   
----------------|-----|--------------------|
----------------|-----|--------------------|
--14------------|-----|------7br---L----5--|
----------------|-----|--------------------|
----------------|-----|--------------------|
----------------|-----|--------------------|


  Q.       Q.          H.                  
--------------------|---------------|-----|
--------------------|---------------|-----|
--4------<>4br------|--2------------|-----|
--------------------|---------------|-----|
--------------------|---------------|-----|
--------------------|---------------|-----|


  E.  E.   E.  E.      Q      E  Q      E   
---------------8---|--10br----8--7br-------|
------8---10-------|--------------------8--|
--9----------------|-----------------------|
-------------------|-----------------------|
-------------------|-----------------------|
-------------------|-----------------------|


    H.              Q.     E  E  E     Q.     E  E  E   
-----------------|------------------|------------------|
--/10------------|------------------|------------------|
-----------------|---------9--7--4--|---------5--7--9--|
-----------------|------------------|------------------|
-----------------|---------7--5--2--|---------3--5--7--|
-----------------|------------------|------------------|


  Q.     E  E  E     S E  E  S E  E  E   
------------------|---------------------|
------------------|---------------------|
---------7--5--4--|---------------------|
------------------|--7-7--7--7-7--7--7--|
---------5--3--2--|--7-7--7--7-7--7--7--|
------------------|--5-5--5--5-5--5--5--|


  S E  E  S Q.       
-------------------||
-------------------||
-------------------||
--7-7--7--7-7------||
--7-7--7--7-7------||
--5-5--5--5-5------||




######################Guitar Two#####################



     ^  ^ v  ^ ^  ^  ^     ^  ^ v  ^ ^  ^  ^   
     E  S E  S E  E  E     E  S E  S E  E  E   
E||--0--0-0--0-0--0--0--|--0--0-0--0-0--0--0--|
B||--1--1-1--1-1--1--1--|--1--1-1--1-1--1--1--|
G||--2--2-2--2-2--2--2--|--2--2-2--2-2--2--2--|
D||--2--2-2--2-2--2--2--|--2--2-2--2-2--2--2--|
A||--0--0-0--0-0--0--0--|--0--0-0--0-0--0--0--|
E||---------------------|---------------------|


  ^  ^ v  ^ ^  ^  ^     ^  ^ v  ^ ^  ^  ^   
  E  S E  S E  E  E     E  S E  S E  E  E   
--1--1-1--1-1--1--1--|--3--3-3--3-3--3--3--|
--1--1-1--1-1--1--1--|--3--3-3--3-3--3--3--|
--2--2-2--2-2--2--2--|--0--0-0--0-0--0--0--|
--3--3-3--3-3--3--3--|--0--0-0--0-0--0--0--|
--3--3-3--3-3--3--3--|--2--2-2--2-2--2--2--|
---------------------|---------------------|


  ^  ^ v  ^ ^  ^  ^     ^  ^ v  ^ ^  ^  ^   
  E  S E  S E  E  E     E  S E  S E  E  E   
--0--0-0--0-0--0--0--|--0--0-0--0-0--0--0--|
--1--1-1--1-1--1--1--|--1--1-1--1-1--1--1--|
--2--2-2--2-2--2--2--|--2--2-2--2-2--2--2--|
--2--2-2--2-2--2--2--|--2--2-2--2-2--2--2--|
--0--0-0--0-0--0--0--|--0--0-0--0-0--0--0--|
---------------------|---------------------|


  ^  ^ v  ^ ^  ^  ^     ^  ^ v  ^ ^  ^  ^   
  E  S E  S E  E  E     E  S E  S E  E  E   
--1--1-1--1-1--1--1--|--3--3-3--3-3--3--3--|
--1--1-1--1-1--1--1--|--3--3-3--3-3--3--3--|
--2--2-2--2-2--2--2--|--0--0-0--0-0--0--0--|
--3--3-3--3-3--3--3--|--0--0-0--0-0--0--0--|
--3--3-3--3-3--3--3--|--2--2-2--2-2--2--2--|
---------------------|---------------------|


  ^  ^ v  ^ ^  ^  ^     ^  ^ v  ^ ^  ^  ^   
  E  S E  S E  E  E     E  S E  S E  E  E   
--0--0-0--0-0--0--0--|--0--0-0--0-0--0--0--|
--1--1-1--1-1--1--1--|--1--1-1--1-1--1--1--|
--2--2-2--2-2--2--2--|--2--2-2--2-2--2--2--|
--2--2-2--2-2--2--2--|--2--2-2--2-2--2--2--|
--0--0-0--0-0--0--0--|--0--0-0--0-0--0--0--|
---------------------|---------------------|


  ^  ^ v  ^ ^  ^  ^     ^  ^ v  ^ ^  ^  ^   
  E  S E  S E  E  E     E  S E  S E  E  E   
--1--1-1--1-1--1--1--|--3--3-3--3-3--3--3--|
--1--1-1--1-1--1--1--|--3--3-3--3-3--3--3--|
--2--2-2--2-2--2--2--|--0--0-0--0-0--0--0--|
--3--3-3--3-3--3--3--|--0--0-0--0-0--0--0--|
--3--3-3--3-3--3--3--|--2--2-2--2-2--2--2--|
---------------------|---------------------|


  ^  ^ v  ^                        
  E  S E  S    S S S E  S E  Q     
--0--0-0--0-|---------------------|
--1--1-1--1-|---------------------|
--2--2-2--2-|---------------------|
--2--2-2--2-|--7-7-7-7--7-7-------|
--0--0-0--0-|--7-7-7-7--7-7-------|
------------|--5-5-5-5--5-5-------|


  S S S E  S E  E  E     S S S E  S E  Q     
----------------------|---------------------|
----------------------|---------------------|
----------------------|---------------------|
--7-7-7-7--7-7--7-----|--3-3-3-3--3-3-------|
--7-7-7-7--7-7--7-----|--3-3-3-3--3-3-------|
--5-5-5-5--5-5--5-----|--1-1-1-1--1-1-------|


  S S S E  S E  Q       S S S E  S E  Q     
---------------------|---------------------|
---------------------|---------------------|
---------------------|---------------------|
--5-5-5-5--5-5-------|--7-7-7-7--7-7-------|
--5-5-5-5--5-5-------|--7-7-7-7--7-7-------|
--3-3-3-3--3-3-------|--5-5-5-5--5-5-------|


  S S S E  S E  E  E     S S S E  S E  Q     
----------------------|---------------------|
----------------------|---------------------|
----------------------|---------------------|
--7-7-7-7--7-7--7-----|--3-3-3-3--3-3-------|
--7-7-7-7--7-7--7-----|--3-3-3-3--3-3-------|
--5-5-5-5--5-5--5-----|--1-1-1-1--1-1-------|


  S S S E  S E  Q       E  S E  S E  E  E   
---------------------|---------------------|
---------------------|---------------------|
---------------------|---------------------|
--5-5-5-5--5-5-------|-----7-7--7-7--7-----|
--5-5-5-5--5-5-------|-----7-7--7-7--7-----|
--3-3-3-3--3-3-------|-----5-5--5-5--5-----|


                           PM                 
  E  S E  S E  E  E     E  S  E  E.  S S S S  
---------------------|-----------------------|
---------------------|-----------------------|
---------------------|-----------------------|
-----7-7--7-7--------|--2--0--3--2---2-3-2-0-|
-----7-7--7-7--------|-----------------------|
-----5-5--5-5--------|-----------------------|


     PM    PM                  PM                 
  E  S  E  S  E  S S S S    E  S  E  E.  S S S S  
-------------------------|-----------------------|
-------------------------|-----------------------|
-------------------------|-----------------------|
--2--0--3--0-----2-3-5-3-|--2--0--3--2---2-3-2-0-|
--------------3----------|-----------------------|
-------------------------|-----------------------|


                              PM                 
  S S S E  S S S S E  S    E  S  E  E.  S S S S  
------------------------|-----------------------|
------------------------|-----------------------|
------------------------|-----------------------|
--------0----------0----|--2--0--3--2---2-3-2-0-|
--3-5-3----3-2-3-2----2-|-----------------------|
------------------------|-----------------------|


     PM    PM                  PM                 
  E  S  E  S  E  S S S S    E  S  E  E.  S S S S  
-------------------------|-----------------------|
-------------------------|-----------------------|
-------------------------|-----------------------|
--2--0--3--0-----2-3-5-3-|--2--0--3--2---2-3-2-0-|
--------------3----------|-----------------------|
-------------------------|-----------------------|


                           PM PM PM              
  S S S E  S S S S E  S    S  S  S  E  E.  Q     
------------------------|-----------------------|
------------------------|-----------------------|
------------------------|-----------------------|
--------0----------0----|-----------3-----------|
--3-5-3----3-2-3-2----2-|--3--3--3--3-----------|
------------------------|--1--1--1--1-----------|


  PM PM PM                PM PM PM              
  S  S  S  E  E.  Q       S  S  S  E  E.  Q     
-----------------------|-----------------------|
-----------------------|-----------------------|
-----------------------|-----------------------|
-----------5-----------|-----------3-----------|
--5--5--5--5-----------|--3--3--3--3-----------|
--3--3--3--3-----------|--1--1--1--1-----------|


  PM PM PM                   PM PM PM              
  S  S  S  E  E.  S S S S    S  S  S  E  E.  Q     
--------------------------|-----------------------|
--------------------------|-----------------------|
------------------4-5-4---|-----------------------|
-----------5------------7-|-----------3-----------|
--5--5--5--5--------------|--3--3--3--3-----------|
--3--3--3--3--------------|--1--1--1--1-----------|


  PM PM PM                PM PM PM              
  S  S  S  E  E.  Q       S  S  S  E  E.  Q     
-----------------------|-----------------------|
-----------------------|-----------------------|
-----------------------|-----------------------|
-----------5-----------|-----------3-----------|
--5--5--5--5-----------|--3--3--3--3-----------|
--3--3--3--3-----------|--1--1--1--1-----------|


  H.              S S S S S S S S S S S S  
---------------|--------------------------|
---------------|--------------------------|
---------------|--------------------------|
--5------------|--7-7-7-7-7-7-7-7-7-7-7-7-|
--5------------|--7-7-7-7-7-7-7-7-7-7-7-7-|
--3------------|--5-5-5-5-5-5-5-5-5-5-5-5-|


  S S S S S S S S S S S S    S S S S S S S S S S S S  
--------------------------|--------------------------|
--------------------------|--------------------------|
--------------------------|--------------------------|
--7-7-7-7-7-7-7-7-7-7-7-7-|--7-7-7-7-7-7-7-7-7-7-7-7-|
--7-7-7-7-7-7-7-7-7-7-7-7-|--7-7-7-7-7-7-7-7-7-7-7-7-|
--5-5-5-5-5-5-5-5-5-5-5-5-|--5-5-5-5-5-5-5-5-5-5-5-5-|


  S S S S S S S S S S S S    S S S S S S S S S S S S  
--------------------------|--------------------------|
--------------------------|--------------------------|
--------------------------|--------------------------|
--7-7-7-7-7-7-7-7-7-7-7-7-|--3-3-3-3-3-3-3-3-3-3-3-3-|
--7-7-7-7-7-7-7-7-7-7-7-7-|--3-3-3-3-3-3-3-3-3-3-3-3-|
--5-5-5-5-5-5-5-5-5-5-5-5-|--1-1-1-1-1-1-1-1-1-1-1-1-|


  S S S S S S S S S S S S    S S S S S S S S S S S S  
--------------------------|--------------------------|
--------------------------|--------------------------|
--------------------------|--------------------------|
--5-5-5-5-5-5-5-5-5-5-5-5-|--7-7-7-7-7-7-7-7-7-7-7-7-|
--5-5-5-5-5-5-5-5-5-5-5-5-|--7-7-7-7-7-7-7-7-7-7-7-7-|
--3-3-3-3-3-3-3-3-3-3-3-3-|--5-5-5-5-5-5-5-5-5-5-5-5-|


  S S S S S S S S S S S S    S S S S S S S S S S S S  
--------------------------|--------------------------|
--------------------------|--------------------------|
--------------------------|--------------------------|
--7-7-7-7-7-7-7-7-7-7-7-7-|--7-7-7-7-7-7-7-7-7-7-7-7-|
--7-7-7-7-7-7-7-7-7-7-7-7-|--7-7-7-7-7-7-7-7-7-7-7-7-|
--5-5-5-5-5-5-5-5-5-5-5-5-|--5-5-5-5-5-5-5-5-5-5-5-5-|


  S S S S S S S S S S S S    S S S S S S S S S S S S  
--------------------------|--------------------------|
--------------------------|--------------------------|
--------------------------|--------------------------|
--7-7-7-7-7-7-7-7-7-7-7-7-|--3-3-3-3-3-3-3-3-3-3-3-3-|
--7-7-7-7-7-7-7-7-7-7-7-7-|--3-3-3-3-3-3-3-3-3-3-3-3-|
--5-5-5-5-5-5-5-5-5-5-5-5-|--1-1-1-1-1-1-1-1-1-1-1-1-|


  S S S S S S S S S S S S    S S S S S S S S S S S S  
--------------------------|--------------------------|
--------------------------|--------------------------|
--------------------------|--------------------------|
--5-5-5-5-5-5-5-5-5-5-5-5-|--7-7-7-7-7-7-7-7-7-7-7-7-|
--5-5-5-5-5-5-5-5-5-5-5-5-|--7-7-7-7-7-7-7-7-7-7-7-7-|
--3-3-3-3-3-3-3-3-3-3-3-3-|--5-5-5-5-5-5-5-5-5-5-5-5-|


  S S S S S S Q.        S S S E.  S S S S S S  
---------------------|------------------------|
---------------------|------------------------|
---------------------|------------------------|
--7-7-7-7-7-7--------|--7-7-7-7---------------|
--7-7-7-7-7-7--------|--7-7-7-7---7-5-7-8-7-5-|
--5-5-5-5-5-5--------|--5-5-5-5---------------|


  S S S E.  S S S S S S    S S S E.  S S S S S S  
------------------------|------------------------|
------------------------|------------------------|
------------------------|------------------------|
--5-5-5-5---------------|--3-3-3-3---------------|
--5-5-5-5---5-3-5-7-5-3-|--3-3-3-3---3-2-3-5-3-2-|
--3-3-3-3---------------|--1-1-1-1---------------|


  S S S E.  S S S S S S    S S S E.  S S S S S S  
------------------------|------------------------|
------------------------|------------------------|
------------------------|------------------------|
--5-5-5-5---------------|--7-7-7-7---------------|
--5-5-5-5---5-3-5-7-5-3-|--7-7-7-7---7-5-7-8-7-5-|
--3-3-3-3---------------|--5-5-5-5---------------|


  S S S E.  S S S S S S    S S S E.  S S S S S S  
------------------------|------------------------|
------------------------|------------------------|
------------------------|------------------------|
--5-5-5-5---------------|--3-3-3-3---------------|
--5-5-5-5---5-3-5-7-5-3-|--3-3-3-3---3-2-3-5-3-2-|
--3-3-3-3---------------|--1-1-1-1---------------|


  S S S E.  S S S S S S    S S S S S S S S S S S S  
------------------------|--------------------------|
------------------------|--------------------------|
------------------------|--------------------------|
--5-5-5-5---------------|--7-7-7-7-7-7-3-3-3-3-3-3-|
--5-5-5-5---5-3-5-7-5-3-|--7-7-7-7-7-7-3-3-3-3-3-3-|
--3-3-3-3---------------|--5-5-5-5-5-5-1-1-1-1-1-1-|


  S S S S S S S S S S S S    S S S S S S S S S S S S  
--------------------------|--------------------------|
--------------------------|--------------------------|
--------------------------|--------------------------|
--5-5-5-5-5-5-7-7-7-7-7-7-|--7-7-7-7-7-7-3-3-3-3-3-3-|
--5-5-5-5-5-5-7-7-7-7-7-7-|--7-7-7-7-7-7-3-3-3-3-3-3-|
--3-3-3-3-3-3-5-5-5-5-5-5-|--5-5-5-5-5-5-1-1-1-1-1-1-|


  S S S S S S S S S S S S    S S S S S S S S S S S S  
--------------------------|--------------------------|
--------------------------|--------------------------|
--------------------------|--------------------------|
--5-5-5-5-5-5-7-7-7-7-7-7-|--7-7-7-7-7-7-3-3-3-3-3-3-|
--5-5-5-5-5-5-7-7-7-7-7-7-|--7-7-7-7-7-7-3-3-3-3-3-3-|
--3-3-3-3-3-3-5-5-5-5-5-5-|--5-5-5-5-5-5-1-1-1-1-1-1-|


  S S S S S S S S S S S S    S S S S S S S S S S S S  
--------------------------|--------------------------|
--------------------------|--------------------------|
--------------------------|--------------------------|
--5-5-5-5-5-5-7-7-7-7-7-7-|--7-7-7-7-7-7-3-3-3-3-3-3-|
--5-5-5-5-5-5-7-7-7-7-7-7-|--7-7-7-7-7-7-3-3-3-3-3-3-|
--3-3-3-3-3-3-5-5-5-5-5-5-|--5-5-5-5-5-5-1-1-1-1-1-1-|


  S S S S S S S S S S S S    S S S S S S S S S S S S  
--------------------------|--------------------------|
--------------------------|--------------------------|
--------------------------|--------------------------|
--5-5-5-5-5-5-7-7-7-7-7-7-|--7-7-7-7-7-7-7-7-7-7-7-7-|
--5-5-5-5-5-5-7-7-7-7-7-7-|--7-7-7-7-7-7-7-7-7-7-7-7-|
--3-3-3-3-3-3-5-5-5-5-5-5-|--5-5-5-5-5-5-5-5-5-5-5-5-|


  S S S S S S S S S S S S    S S S S S S S S S S S S  
--------------------------|--------------------------|
--------------------------|--------------------------|
--------------------------|--------------------------|
--7-7-7-7-7-7-7-7-7-7-7-7-|--3-3-3-3-3-3-3-3-3-3-3-3-|
--7-7-7-7-7-7-7-7-7-7-7-7-|--3-3-3-3-3-3-3-3-3-3-3-3-|
--5-5-5-5-5-5-5-5-5-5-5-5-|--1-1-1-1-1-1-1-1-1-1-1-1-|


  S S S S S S S S S S S S    S E  E  S E  E  E   
--------------------------|---------------------|
--------------------------|---------------------|
--------------------------|---------------------|
--5-5-5-5-5-5-5-5-5-5-5-5-|--7-7--7--7-7--7--7--|
--5-5-5-5-5-5-5-5-5-5-5-5-|--7-7--7--7-7--7--7--|
--3-3-3-3-3-3-3-3-3-3-3-3-|--5-5--5--5-5--5--5--|


  S E  E  S Q.       
-------------------||
-------------------||
-------------------||
--7-7--7--7-7------||
--7-7--7--7-7------||
--5-5--5--5-5------||






Duration Legend
---------------
W - whole
H - half
Q - quarter
E - 8th
S - 16th
T - 32nd
X - 64th
. - note dotted
|-n-|  - n-tuplets


Tablature Legend
----------------
L - tied note
x - dead note
g - grace note
(n) - ghost note
> - accentuded note
NH - natural harmonic
AH - artificial harmonic
TH - tapped harmonic
SH - semi harmonic
PH - pitch harmonic
h - hammer on
p - pull off
b - bend
br - bendRelease
pb - preBend
pbr - preBendRelease
brb - bendReleaseBend
\n/ - tremolo bar dip
\n - tremolo bar dive
-/n - tremolo bar Release up
/n\ - tremolo bar inverted dip
/n - tremolo bar return
-\n - tremolo bar Release down
S - shift slide
s - legato slide
/ -  slide into from below or out of upwards
\ -  slide into from above or out of downwards
~ - vibrato
W - wide vibrato
tr - trill
TP - tremolo picking
T - tapping
S - slap
P - pop
< - fade in
^ - brush up
v - brush down
comments
We did not receive enough feedback on this tab! Please rate:
print report bad tab
1 2 3 4 5
I want to post or [tab]
guest
You may want to rate the tab now too:
select rating
Please do not post tabs as comments. Select "correction" instead!