Oops, an error
Loading. Please wait.

Impact - Dead End Street Tab

62 views 1 this week
no commentswrite comment
1 2 3 4 5
please rate
add to favorites launch autoscroll
font size
0
reset
Autoscroll
+/-
esc
set tempo
stop
Contributor
Difficulty
advanced
WARNING: You are trying to view
                                    content from Ultimate-Guitar.com
                                    in an unauthorized application,
                                    which is prohibited.

                                    Please use an official Ultimate
                                    Guitar Tabs application for iPhone,
                                    iPad or Android to access legitimate
                                    chords, guitar, bass, and drum tabs
                                    from Ultimate-Guitar.com database.

                                    Type "ultimate guitar tabs" in Apple
                                    App Store's or Android Market's
                                    search to find the application.
Lead Guitar
             S S S S S S S S S S S S S S S S  
E||-------|----------------------------------|
B||-------|----------------------------------|
G||-------|----------------------------------|
D||-------|------x-x-7-7---------x-x-7-7-----|
A||-------|------x-x-------------x-x---------|
E||-------|------x-x-------------x-x---------|


  S S S S S S S S S S S S S S S S    S S S S S S S S S S S S S S S S  
----------------------------------|----------------------------------|
----------------------------------|----------------------------------|
----------------------------------|----------------------------------|
------x-x-7-7---------x-x-7-7-----|------x-x-7-7---------7-7-7-7-7-7-|
------x-x-------------x-x---------|------x-x-------------------------|
------x-x-------------x-x---------|------x-x-------------------------|


    Am                                                                         
    ^                        ^                         ^                       
    Q    E  E  E  E  Q       Q    E  E  E  E  E  E     Q    E  E  E  E  E  E   
|-------------------------|-------------------------|-------------------------|
|--------1----------------|-------1--------0--------|-------------------------|
|*-------------2-----2----|----------0--------------|-------0--0-----0-----0--|
|*----------2-------------|-------------2-----2-----|-------------0-----------|
|---0-------------0-------|--3-------------------3--|-------------------2-----|
|-------------------------|-------------------------|--3----------------------|


  F                      F                                                  
  ^        ^             ^        ^                                         
  H        H             H        E  E  S S S S    E  E  E  E  E  E  E  E   
---------------------||-------------------------|--------------------------|
---------------------||-------------------------|--------------------------|
-----------2--------*||-----------2--L----------|--------------------------|
-----------3--------*||-----------3--L--7-7-7-7-|--2--2--------5--5--------|
-----------0---------||-----------0--L----------|--0--0--0--0--3--3--3--3--|
--1------------------||--1----------------------|--------------------------|


  E  E  E  E  E  E  E  E     E  E  E  E  E  E  E  E   
--------------------------|--------------------------|
--------------------------|--------------------------|
--------------------------|--------------------------|
--------------------------|--2--2--------5--5--------|
-----2-----------2--3--5--|--0--0--0--0--3--3--3--3--|
--3-----3--3--3-----------|--------------------------|


  E  E  E  E  E  E  E  E     E  E  E  E  E  E  E  E   
--------------------------|--------------------------|
--------------------------|--------------------------|
-----------------------2--|--------------------------|
--------------------3-----|--2--2--------5--5--------|
-----2--2--2-----0--------|--0--0--0--0--3--3--3--3--|
--3-----------1-----------|--------------------------|


  E  E  E  E  E  E  E  E     E  E  E  E  E  E  E  E   
--------------------------|--------------------------|
--------------------------|--------------------------|
--------------------------|--------------------------|
--------------------------|--2--2--------5--5--------|
-----2-----------2--3--5--|--0--0--0--0--3--3--3--3--|
--3-----3--3--3-----------|--------------------------|


                     |--3--|                                 
  E  E  E  E  E  E   S  S  S S S    E  E  E  E  E  E  E  E   
--------------------------15-5-L-|--------------------------|
-----------------------15--------|--------------------------|
--------------------14---------2-|--2--L--L--L--0--L--L--L--|
---------------------------------|--2--L--L--L--2--L--L--L--|
-----2--2--2-----0---------------|--0--L--L--L--3--L--L--L--|
--3-----------1------------------|--------------------------|


  E  E  E  E  E  E  E  E     E  E  E  E  E  E  E  E   
--------------------------|--------------------------|
--------------------------|--------------------------|
--------------------------|--2--L--L--L--0--L--L--L--|
--0--L--L--L--5--L--L--L--|--2--L--L--L--2--L--L--L--|
--2--L--L--L--5--L--L--L--|--0--L--L--L--3--L--L--L--|
--3--L--L--L--3--L--L--L--|--------------------------|


  E  E  E  E  E  E  S S S S    E  E  E  E  E  E  E  E   
----------------------------|--------------------------|
----------------------------|--------------------------|
----------------------------|--2--L--L--L--0--L--L--L--|
--0--L--L--L--3--L--3-3-3-3-|--2--L--L--L--2--L--L--L--|
--2--L--L--L--0--L----------|--0--L--L--L--3--L--L--L--|
--3--L--L--L--1--L----------|--------------------------|


  E  E  E  E  E  E  E  E     E  E  E  E  E  E  E  E   
--------------------------|--------------------------|
--------------------------|--------------------------|
--------------------------|--2--L--L--L--0--L--L--L--|
--0--L--L--L--5--L--L--L--|--2--L--L--L--2--L--L--L--|
--2--L--L--L--5--L--L--L--|--0--L--L--L--3--L--L--L--|
--3--L--L--L--3--L--L--L--|--------------------------|


  E  E  E  E  E  E  E  E     E  E  E  E  E  E  E  E   
--------------------------|--------------------------|
--------------------------|--------------------------|
--------------------------|--2--L--L--L--0--L--L--L--|
--0--L--L--L--3--L--L--L--|--2--L--L--L--2--L--L--L--|
--2--L--L--L--0--L--L--L--|--0--L--L--L--3--L--L--L--|
--3--L--L--L--1--L--L--L--|--------------------------|


  E  E  E  E  E  E  E  E     E  E  E  E  E  E  E  E   
--------------------------|--------------------------|
--------------------------|--------------------------|
--------------------------|--2--L--L--L--0--L--L--L--|
--0--L--L--L--5--L--L--L--|--2--L--L--L--2--L--L--L--|
--2--L--L--L--5--L--L--L--|--0--L--L--L--3--L--L--L--|
--3--L--L--L--3--L--L--L--|--------------------------|


  E  E  E  E  E  E  E  E     E  E  E  E  E  E  E  E   
--------------------------|--------------------------|
--------------------------|--------------------------|
--------------------------|--2--L--L--L--0--L--L--L--|
--0--L--L--L--3--L--L--L--|--2--L--L--L--2--L--L--L--|
--2--L--L--L--0--L--L--L--|--0--L--L--L--3--L--L--L--|
--3--L--L--L--1--L--L--L--|--------------------------|


  E  E  E  E  E  E  E  E     E  E  E  E  E  E  E  E   
--------------------------|--------------------------|
--------------------------|--------------------------|
--------------------------|--2--L--L--L--0--L--L--L--|
--0--L--L--L--5--L--L--L--|--2--L--L--L--2--L--L--L--|
--2--L--L--L--5--L--L--L--|--0--L--L--L--3--L--L--L--|
--3--L--L--L--3--L--L--L--|--------------------------|


                             T                        
  E  E  E  E  E  E  E  E     E  E  E  E  E  E  E  E   
--------------------------|--------------------------|
--------------------------|--------------------------|
--------------------------|--------------------------|
--0--L--L--L--3--L--L--L--|--------2--2--------2--2--|
--2--L--L--L--0--L--L--L--|--------------0--0--------|
--3--L--L--L--1--L--L--L--|--1--1--------------------|


                             T                        
  E  E  E  E  E  E  E  E     E  E  E  E  E  E  E  E   
--------------------------|--------------------------|
--------------------------|--------------------------|
--------------------------|--------------------------|
--------------------------|--------2--2--------2--2--|
--------0--0--------2--2--|--------------0--0--------|
--1--1--------3--3--------|--1--1--------------------|


  E  E  E  E  E  E  E  E     E  E  E  E  E  E  E  E   
--------------------------|--------------------------|
--------------------------|--------------------------|
--------------------------|--------------------------|
--------------------------|--------2--2--------2--2--|
--------0--0--------5--5--|-----2--------2-----------|
--1--1--------3--3--------|--0--------------0--------|


  E  E  E  E  E  E  E  E     E  E  E  E  E  E  E  E   
--------------------------|--------------------------|
--------------------------|--------------------------|
--------------------------|--------------------------|
-----2--2-----2--2-----2--|--------2--2--------2--2--|
--3--------3--------3-----|-----2--------2-----------|
--------------------------|--0--------------0--------|


                               Am                                               
                               ^                        ^                       
  E  E  E  E  E  E  E  E       Q    E  E  E  E  Q       Q    E  E  E  E  E  E   
--------------------------||-------------------------|-------------------------|
--------------------------||--------1----------------|-------1--------0--------|
--------------------------||*-------------2-----2----|----------0--------------|
-----2--2-----2--2--0--2--||*----------2-------------|-------------2-----2-----|
--3--------3--------------||---0-------------0-------|--3-------------------3--|
--------------------------||-------------------------|-------------------------|


                            F                                               
  ^                         ^        ^                                      
  Q    E  E  E  E  E  E     H        H             E  E  E  E  E  E  E  E   
-------------------------|---------------------||--------------------------|
-------------------------|---------------------||--------------------------|
-------0--0-----0-----0--|-----------2--------*||--2--L--L--L--0--L--L--L--|
-------------0-----------|-----------3--------*||--2--L--L--L--2--L--L--L--|
-------------------2-----|-----------0---------||--0--L--L--L--3--L--L--L--|
--3----------------------|--1------------------||--------------------------|


  E  E  E  E  E  E  E  E     E  E  E  E  E  E  E  E   
--------------------------|--------------------------|
--------------------------|--------------------------|
--------------------------|--2--L--L--L--0--L--L--L--|
--0--L--L--L--5--L--L--L--|--2--L--L--L--2--L--L--L--|
--2--L--L--L--5--L--L--L--|--0--L--L--L--3--L--L--L--|
--3--L--L--L--3--L--L--L--|--------------------------|


  E  E  E  E  E  E  S S S S    E  E  E  E  E  E  E  E   
----------------------------|--------------------------|
----------------------------|--------------------------|
----------------------------|--2--L--L--L--0--L--L--L--|
--0--L--L--L--3--L--x-x-7-7-|--2--L--L--L--2--L--L--L--|
--2--L--L--L--0--L--x-x-----|--0--L--L--L--3--L--L--L--|
--3--L--L--L--1--L--x-x-----|--------------------------|


  E  E  E  E  E  E  E  E     E  E  E  E  E  E  E  E   
--------------------------|--------------------------|
--------------------------|--------------------------|
--------------------------|--2--L--L--L--0--L--L--L--|
--0--L--L--L--5--L--L--L--|--2--L--L--L--2--L--L--L--|
--2--L--L--L--5--L--L--L--|--0--L--L--L--3--L--L--L--|
--3--L--L--L--3--L--L--L--|--------------------------|


  E  E  E  E  E  E  E  E     E  E  E  E  E  E  E  E   
--------------------------|--------------------------|
--------------------------|--------------------------|
--------------------------|--2--L--L--L--0--L--L--L--|
--0--L--L--L--3--L--L--L--|--2--L--L--L--2--L--L--L--|
--2--L--L--L--0--L--L--L--|--0--L--L--L--3--L--L--L--|
--3--L--L--L--1--L--L--L--|--------------------------|


  E  E  E  E  E  E  E  E     E  E  E  E  E  E  E  E   
--------------------------|--------------------------|
--------------------------|--------------------------|
--------------------------|--2--L--L--L--0--L--L--L--|
--0--L--L--L--5--L--L--L--|--2--L--L--L--2--L--L--L--|
--2--L--L--L--5--L--L--L--|--0--L--L--L--3--L--L--L--|
--3--L--L--L--3--L--L--L--|--------------------------|


  E  E  E  E  E  E  E  E     E  E  E  E  E  E  E  E   
--------------------------|--------------------------|
--------------------------|--------------------------|
--------------------------|--2--L--L--L--0--L--L--L--|
--0--L--L--L--3--L--L--L--|--2--L--L--L--2--L--L--L--|
--2--L--L--L--0--L--L--L--|--0--L--L--L--3--L--L--L--|
--3--L--L--L--1--L--L--L--|--------------------------|


  E  E  E  E  E  E  E  E     E  E  E  E  E  E  E  E   
--------------------------|--------------------------|
--------------------------|--------------------------|
--------------------------|--2--L--L--L--0--L--L--L--|
--0--L--L--L--5--L--L--L--|--2--L--L--L--2--L--L--L--|
--2--L--L--L--5--L--L--L--|--0--L--L--L--3--L--L--L--|
--3--L--L--L--3--L--L--L--|--------------------------|


  E  E  E  E  E  E  E  E     E  E  E  E  E  E  E  E   
--------------------------|--------------------------|
--------------------------|--------------------------|
--------------------------|--------------------------|
--0--L--L--L--3--L--L--L--|--2--2--2--2--5--5--5--5--|
--2--L--L--L--0--L--L--L--|--0--0--0--0--3--3--3--3--|
--3--L--L--L--1--L--L--L--|--------------------------|


  E  E  E  E  E  E  E  E     E  E  E  E  E  E  E  E   
--------------------------|--------------------------|
--------------------------|--------------------------|
--------------------------|--------------------------|
--5--5--5--5--5--5--5--5--|--2--2--2--2--5--5--5--5--|
--5--5--5--5--5--5--5--5--|--0--0--0--0--3--3--3--3--|
--3--3--3--3--3--3--3-----|--------------------------|


  E  E  E  E  E  E  E  E     E  E  E  E  E  E  E  E   
--------------------------|--------------------------|
--------------------------|--------------------------|
--------------------------|--------------------------|
--5--5--5--5--7--7--7--7--|--2--2--2--2--5--5--5--5--|
--5--5--5--5--7--5--7--7--|--0--0--0--0--3--3--3--3--|
--3--3--3--3--5--3--3--5--|--------------------------|


  E  E  E  E  E  E  E  E     E  E  E  E  E  E  E  E   
--------------------------|--------------------------|
--------------------------|--------------------------|
--------------------------|--------------------------|
--5--5--5--5--5--5--5--5--|--2--2--2--2--5--5--5--5--|
--5--5--5--5--5--5--5--5--|--0--0--0--0--3--3--3--3--|
--3--3--3--3--3--3--3-----|--------------------------|


  E  E  E  E  E  E  E  E     E  E  E  E  E  E  E  E   
--------------------------|--------------------------|
--------------------------|--------1--1--------1--1--|
--------------------------|--------2--2--------0--0--|
--5--5--5--5--7--7--7--7--|--------2--2--------2--2--|
--5--5--5--5--7--5--7--7--|--0--0--------0--0--------|
--3--3--3--3--5--3--3--5--|--------------------------|


  E  E  E  E  E  E  E  E     E  E  E  E  E  E  E  E   
--------------------------|--------------------------|
--------3--3--------3--3--|--------1--1--------1--1--|
--------2--2--------0--2--|--------2--2--------0--0--|
--------0--0--------2--0--|--------2--2--------2--2--|
--0--0--------0--0--------|--0--0--------0--0--------|
--------------------------|--------------------------|


  E  E  E  E  E  E  E  E     E  E  E  E  E  E  E  E   
--------------------------|--------------------------|
--------3--3--------3--3--|--------1--1--------1--1--|
--------2--2--------0--2--|--------2--2--------0--0--|
--------0--0--------2--0--|--------2--2--------2--2--|
--0--0--------0--0--------|--0--0--------0--0--------|
--------------------------|--------------------------|


  E  E  E  E  E  E  E  E     E  E  E  E  E  E  E  E   
--------------------------|--------------------------|
--------3--3--------3--3--|--------1--1--------1--1--|
--------2--2--------0--2--|--------2--2--------0--0--|
--------0--0--------2--0--|--------2--2--------2--2--|
--0--0--------0--0--------|--0--0--------0--0--------|
--------------------------|--------------------------|


  E  E  E  E  E  E  E  E     E   E  E   E  E  E   E  E   
--------------------------|-----------------------------|
--------3--3--------3--3--|--3--------------------------|
--------2--2--------0--2--|--0---------12--------14-----|
--------0--0--------2--0--|--2~--------14--------12-----|
--0--0--------0--0--------|------0--0------0--0------0--|
--------------------------|-----------------------------|


  E  E  E  E  E  E  E  E      E   E  E   E  E  E   E  E   
--------------------------|------------------------------|
--------------------------|------------------------------|
--9--------7--------9-----|--12---------12--------14-----|
--7--------9--------7-----|--14~--------14--------12-----|
-----0--0-----0--0-----0--|-------0--0------0--0------0--|
--------------------------|------------------------------|


  E  E  E  E  E  E  E  E      E  E   E  E   E  E   E  E   
--------------------------|------------------------------|
--------------------------|------------------------------|
--9--------7--------9-----|--12--L--12--L--14--L--14--L--|
--7--------9--------7-----|--14--L--14--L--12--L--12--L--|
-----0--0-----0--0-----0--|------0------0------0------0--|
--------------------------|------------------------------|


  E  E  E  E  E  E  E  E      E  E   E  E   E  E   E  E   
--------------------------|------------------------------|
--------------------------|------------------------------|
--9--L--9--L--7--L--9--L--|--12--L--12--L--14--L--14--L--|
--7--L--7--L--9--L--7--L--|--14--L--14--L--12--L--12--L--|
-----0-----0-----0-----0--|------0------0------0------0--|
--------------------------|------------------------------|


                                    |---3---|                    
  E  E  E  E  E  E  E  E     E  E   E   E   E   E   E    E   E   
--------------------------|-------------------------------------|
--------------------------|--------------------17~--L--(17)--L--|
--9--L--9--L--7--L--9--L--|------------12--14-------------------|
--7--L--7--L--9--L--7--L--|--x--x--14---------------------------|
-----0-----0-----0-----0--|-------------------------------------|
--------------------------|-------------------------------------|


                               |---3---|                    
   W                    E  E   E   E   E   E   E    E   E   
---------------------|-------------------------------------|
--15~----------------|--------------------17~--L--(17)--L--|
---------------------|------------12--14-------------------|
---------------------|--x--x--14---------------------------|
---------------------|-------------------------------------|
---------------------|-------------------------------------|


   Q     Q     Q     Q        Q      E   E  E  E  E  E   
--------------------------|-----------------------------|
--15----13----12----10----|-----------------------------|
--------------------------|--14-----12--14--L--L-----7--|
--------------------------|--14~----14--14--L--L--0-----|
--------------------------|-----------------------------|
--------------------------|-----------------------------|


  E  E  E  E  E  E   E   E      Q      E   E  E  E  E  E   
----------------------------|-----------------------------|
--8--------8--L--L----------|-----------------------------|
-----7--9-----------12--14--|--14-----12--14--L--L-----7--|
--------------------14--14--|--14~----14--14--L--L--0-----|
----------------------------|-----------------------------|
----------------------------|-----------------------------|


  E  E  E  E  E  E  E  E     Q    E  Q    E   E  E     W                 
--------------------------|-------------------------|-------------------|
--8-----------------------|-------------------------|-------------------|
-----7--9-----------5--7--|----------------------7--|--9----------------|
-----------7--L--L--------|--7----5--7----9--10-----|-------------------|
--------------------------|-------------------------|-------------------|
--------------------------|-------------------------|-------------------|


  Q    E  Q    E  E  E     E  E  E  E  E  E  Q        H        E   E  E   E    
------------------------|-------------------------|---------------------------|
---------------------5--|--6--5--6----------------|--10--------8--10--L---L---|
---------------5--7-----|-----------5--4-----2----|---9--------7---9--L---L---|
--7----5--7-------------|-----------------5-------|---7--------5---7--L~--L~--|
------------------------|-------------------------|---------------------------|
------------------------|-------------------------|---------------------------|


  H         E  E  E   E       Q     Q     Q      Q      
--------------------------|----------------------------|
--8--------10--8--L---L---|--10----10----10-----10-----|
--7---------9--7--L---L---|---9-----9-----9b-----9b----|
--5---------7--5--5~--5~--|----------------------------|
--------------------------|----------------------------|
--------------------------|----------------------------|


                               NH                            /1         
  E  E  E  E  E  E  E  E       W                   Q    Q    Q    Q     
-----7--8-----8--7--------|---------------------|----------------------|
--8--------8--------8-----|---------------------|----------------------|
-----------------------7--|---------------------|----------------------|
--------------------------|--<>7----------------|--L----L----7----L----|
--------------------------|---------------------|----------------------|
--------------------------|---------------------|----------------------|


    NH  NH  NH    NH    NH     NH  NH  NH    NH    NH   
    S   S   S S   S S   S S    S   S   S S   S S   S S  
-------------------------------------------------------|
-------------------------------------------------------|
----7-------7-----5-----5-----10-------9-----7---------|
--<>7-<>L-<>7-L-<>7---<>7-L-<>10-<>L-<>9-L-<>7---<>7-L-|
---------------------------------------------------7---|
-------------------------------------------------------|


  TP   NH  NH    NH    NH    NH  NH  NH    NH    NH   
  S    S   S S   S S   S S   S   S   S S   S S   S S  
-----------------------------------------------------|
-----------------------------------------------------|
-----------5-----3-----5-------------3-----5---------|
--5--<>L-<>5-L-<>3---<>5-L-<>5-<>L-<>3-L-<>5---<>5-L-|
--3----L---------------------5-------------------3---|
-------L---------------------------------------------|


   Q    E  E   E   E   E  E     Q     Q     E  Q    E   
-----------------------------|-------------------------|
--10----L--L--10--10--10--L--|--8-----L----10--8----L--|
---9----L--L---9--12---9--L--|--9-----L----12--9----L--|
-----------------------------|-------------------------|
-----------------------------|-------------------------|
-----------------------------|-------------------------|


   Q    E  E   E   E   E  E     H        H         
-----------------------------|--------------------|
--10----L--L--10--10--10--L--|--8--------8--------|
---9----L--L---9--12---9--L--|--9--------7--------|
-----------------------------|--------------------|
-----------------------------|--------------------|
-----------------------------|--------------------|


   E   E   E   E  E  E  E  E     E  E  E  E  E  E  E  E   
------------------------------|--------------------------|
--13--12--10------------------|--------------------------|
--------------10--9-----------|--------------------------|
---------------------9--7--5--|--------------------------|
------------------------------|--5--3--------------2--0--|
------------------------------|--------8--7--5--3--------|


  E  E  E  E  E  E  E  E     E  E  E  E  E  E  E  E   
--------------------------|--------------------------|
--------------------------|--------------------------|
--------------------------|--------------------------|
--2--2--------5--5--------|--------------------------|
--0--0--0--0--3--3--3--3--|-----2-----------2--3--5--|
--------------------------|--3-----3--3--3-----------|


  E  E  E  E  E  E  E  E     E  E  E  E  E  E  E  E   
--------------------------|--------------------------|
--------------------------|--------------------------|
--------------------------|-----------------------2--|
--2--2--------5--5--------|--------------------3-----|
--0--0--0--0--3--3--3--3--|-----2--2--2-----0--------|
--------------------------|--3-----------1-----------|


  E  E  E  E  E  E  E  E     E  E  E  E  E  E  E  E   
--------------------------|--------------------------|
--------------------------|--------------------------|
--------------------------|--------------------------|
--2--2--------5--5--------|--------------------------|
--0--0--0--0--3--3--3--3--|-----2-----------2--3--5--|
--------------------------|--3-----3--3--3-----------|


  E  E  E  E  E  E  E  E     E  E  E  E  E  E  E  E   
--------------------------|--------------------------|
--------------------------|--------------------------|
--------------------------|--------------------------|
--2--2--------5--5--------|--------------------------|
--0--0--0--0--3--3--3--3--|-----2--2--2-----5--3--2--|
--------------------------|--3-----------1-----------|


    Am                                                                         
    ^                        ^                         ^                       
    Q    E  E  E  E  Q       Q    E  E  E  E  E  E     Q    E  E  E  E  E  E   
|-------------------------|-------------------------|-------------------------|
|--------1----------------|-------1--------0--------|-------------------------|
|*-------------2-----2----|----------0--------------|-------0--0-----0-----0--|
|*----------2-------------|-------------2-----2-----|-------------0-----------|
|---0-------------0-------|--3-------------------3--|-------------------2-----|
|-------------------------|-------------------------|--3----------------------|


  F                      F                       
  ^        ^             ^        ^              
  H        H             H        E  E  S S S S  
---------------------||-------------------------|
---------------------||-------------------------|
-----------2--------*||-----------2--L--x-x-x-x-|
-----------3--------*||-----------3--L--x-x-x---|
-----------0---------||-----------0--L--x-x-x-x-|
--1------------------||--1----------------------|


  Q    S S S S S S S S S S S S    E  E  E  E  E  E  E  E   
-------------------------------|--------------------------|
-------------------------------|--------------------------|
--2----2-0-2-0-2-0-2-0-2-0-2-0-|--2--L--L--L--0--L--L--L--|
--2----------------------------|--2--L--L--L--2--L--L--L--|
--0----------------------------|--0--L--L--L--3--L--L--L--|
-------------------------------|--------------------------|


  E  E  E  E  E  E  E  E     E  E  E  E  E  E  E  E   
--------------------------|--------------------------|
--------------------------|--------------------------|
--------------------------|--2--L--L--L--0--L--L--L--|
--0--L--L--L--5--L--L--L--|--2--L--L--L--2--L--L--L--|
--2--L--L--L--5--L--L--L--|--0--L--L--L--3--L--L--L--|
--3--L--L--L--3--L--L--L--|--------------------------|


  E  E  E  E  E  E  S S S S    E  E  E  E  E  E  E  E   
----------------------------|--------------------------|
----------------------------|--------------------------|
----------------------------|--2--L--L--L--0--L--L--L--|
--0--L--L--L--3--L--x-x-7-7-|--2--L--L--L--2--L--L--L--|
--2--L--L--L--0--L--x-x-----|--0--L--L--L--3--L--L--L--|
--3--L--L--L--1--L--x-x-----|--------------------------|


  E  E  E  E  E  E  E  E     E  E  E  E  E  E  E  E   
--------------------------|--------------------------|
--------------------------|--------------------------|
--------------------------|--2--L--L--L--0--L--L--L--|
--0--L--L--L--5--L--L--L--|--2--L--L--L--2--L--L--L--|
--2--L--L--L--5--L--L--L--|--0--L--L--L--3--L--L--L--|
--3--L--L--L--3--L--L--L--|--------------------------|


  E  E  E  E  E  E  E  E     E  E  E  E  E  E  E  E   
--------------------------|--------------------------|
--------------------------|--------------------------|
--------------------------|--2--L--L--L--0--L--L--L--|
--0--L--L--L--3--L--L--L--|--2--L--L--L--2--L--L--L--|
--2--L--L--L--0--L--L--L--|--0--L--L--L--3--L--L--L--|
--3--L--L--L--1--L--L--L--|--------------------------|


  E  E  E  E  E  E  E  E     E  E  E  E  E  E  E  E   
--------------------------|--------------------------|
--------------------------|--------------------------|
--------------------------|--2--L--L--L--0--L--L--L--|
--0--L--L--L--5--L--L--L--|--2--L--L--L--2--L--L--L--|
--2--L--L--L--5--L--L--L--|--0--L--L--L--3--L--L--L--|
--3--L--L--L--3--L--L--L--|--------------------------|


  E  E  E  E  E  E  E  E     E  E  E  E  E  E  E  E   
--------------------------|--------------------------|
--------------------------|--------------------------|
--------------------------|-----2-----2-----2--------|
--0--L--L--L--3--L--L--L--|-----------------------0--|
--2--L--L--L--0--L--L--L--|--0-----0-----3-----3-----|
--3--L--L--L--1--L--L--L--|--------------------------|


  E  E  E  E  E  E  E  E     E  E  E  E  E  E  E  E   
--------------------------|--------------------------|
--------------------------|--------------------------|
--------------------------|-----2-----2-----2--------|
-----0-----0-----5-----5--|-----------------------0--|
--------2-----------------|--0-----0-----3-----3-----|
--3-----------3-----3-----|--------------------------|


  E  E  E  E  E  E  E  E     W                   W                 
--------------------------|-------------------|-------------------|
--------------------------|-------------------|-------------------|
--------------------------|-------------------|-------------------|
-----0-----0-----3-----3--|-------------------|-------------------|
--------2-----------0-----|--0----------------|--2----------------|
--3-----------1-----------|--1----------------|--3----------------|


  W                   W                   W                   W                 
-------------------|-------------------|-------------------|-------------------|
-------------------|-------------------|-------------------|-------------------|
-------------------|-------------------|-------------------|-------------------|
-------------------|--7----------------|--L----------------|--L----------------|
--5----------------|--7----------------|--L----------------|--L----------------|
--7----------------|--5----------------|--L----------------|--L----------------|


  Q    Q    Q    Q                          
----------------------|-------------------||
----------------------|-------------------||
----------------------|-------------------||
--L-------------------|-------------------||
--L-------------------|-------------------||
--L-------------------|-------------------||




Duration Legend
---------------
W - whole
H - half
Q - quarter
E - 8th
S - 16th
T - 32nd
X - 64th
. - note dotted
|-n-|  - n-tuplets


Tablature Legend
----------------
L - tied note
x - dead note
g - grace note
(n) - ghost note
> - accentuded note
NH - natural harmonic
AH - artificial harmonic
TH - tapped harmonic
SH - semi harmonic
PH - pitch harmonic
h - hammer on
p - pull off
b - bend
br - bendRelease
pb - preBend
pbr - preBendRelease
brb - bendReleaseBend
\n/ - tremolo bar dip
\n - tremolo bar dive
-/n - tremolo bar Release up
/n\ - tremolo bar inverted dip
/n - tremolo bar return
-\n - tremolo bar Release down
S - shift slide
s - legato slide
/ -  slide into from below or out of upwards
\ -  slide into from above or out of downwards
~ - vibrato
W - wide vibrato
tr - trill
TP - tremolo picking
T - tapping
S - slap
P - pop
< - fade in
^ - brush up
v - brush down
comments
We did not receive enough feedback on this tab! Please rate:
print report bad tab
1 2 3 4 5
I want to post or [tab]
guest
You may want to rate the tab now too:
select rating
Please do not post tabs as comments. Select "correction" instead!