Oops, an error
Loading. Please wait.

In Reference To A Sinking Ship - Bloodline Tab

461 views 1 this week
no commentswrite comment
1 2 3 4 5
please rate
add to favorites launch autoscroll
font size
0
reset
Autoscroll
+/-
esc
set tempo
stop
Contributor
Difficulty
Tuning
intermediate
B F# B E G# C#
WARNING: You are trying to view
                                    content from Ultimate-Guitar.com
                                    in an unauthorized application,
                                    which is prohibited.

                                    Please use an official Ultimate
                                    Guitar Tabs application for iPhone,
                                    iPad or Android to access legitimate
                                    chords, guitar, bass, and drum tabs
                                    from Ultimate-Guitar.com database.

                                    Type "ultimate guitar tabs" in Apple
                                    App Store's or Android Market's
                                    search to find the application.
Bloodline by In Reference to a Sinking Ship
Line 1 - Right Guitar
Line 2 - Left Guitar
Line 3 - Bass
Line 4 - Center Guitar

Db :----------------|-------------------------------|
Ab :----------------|-------------------------------|
E  :----------------|-------------------------------|
B  :----------------|-------------------------------|
Gb :----------------|-------------------------------|
B  :----------------|0-0-0-0-8-8-8-8-7-7-7-7-0-0-0-0|

Db :----------------|-------------------------------|
Ab :----------------|-------------------------------|
E  :----------------|-------------------------------|
B  :----------------|-------------------------------|
Gb :----------------|-------------------------------|
B  :----------------|0-0-0-0-8-8-8-8-7-7-7-7-0-0-0-0|

E  :----------------|-------------------------------|
B  :----------------|-------------------------------|
Gb :----------------|-------------------------------|
B  :----------------|0-0-0-0-8-8-8-8-7-7-7-7-0-0-0-0|

Db :----------------|-------------------------------|
Ab :----------------|-------------------------------|
E  :----------------|-------------------------------|
B  :----------------|-------------------------------|
Gb :----------------|-------------------------------|
B  :----------------|-------------------------------|

============================================================================

Db :-------------------------------|-------------------------------|
Ab :-------------------------------|-------------------------------|
E  :-------------------------------|-------------------------------|
B  :-------------------------------|-------------------------------|
Gb :-------------------------------|-------------------------------|
B  :5-5-5-5-8-8-8-8-0-0-0-0-4-4-4-4|0-0-0-0-8-8-8-8-7-7-7-7-0-0-0-0|

Db :-------------------------------|-------------------------------|
Ab :-------------------------------|-------------------------------|
E  :-------------------------------|-------------------------------|
B  :-------------------------------|-------------------------------|
Gb :-------------------------------|-------------------------------|
B  :5-5-5-5-8-8-8-8-0-0-0-0-4-4-4-4|0-0-0-0-8-8-8-8-7-7-7-7-0-0-0-0|

E  :-------------------------------|-------------------------------|
B  :-------------------------------|-------------------------------|
Gb :-------------------------------|-------------------------------|
B  :5-5-5-5-8-8-8-8-0-0-0-0-4-4-4-4|0-0-0-0-8-8-8-8-7-7-7-7-0-0-0-0|

Db :-------------------------------|-------------------------------|
Ab :-------------------------------|-------------------------------|
E  :-------------------------------|-------------------------------|
B  :-------------------------------|-------------------------------|
Gb :-------------------------------|-------------------------------|
B  :-------------------------------|-------------------------------|

============================================================================

Db :-------------------------------|-------------------------------|
Ab :-------------------------------|-------------------------------|
E  :-------------------------------|-------------------------------|
B  :-------------------------------|-------------------------------|
Gb :-------------------------------|-------------------------------|
B  :5-5-5-5-8-8-8-8-0-0-0-0-1-1-1-1|0-0-0-0-8-8-8-8-7-7-7-7-0-0-0-0|

Db :-------------------------------|-------------------------------|
Ab :-------------------------------|-------------------------------|
E  :-------------------------------|-------------------------------|
B  :-------------------------------|-------------------------------|
Gb :-------------------------------|-------------------------------|
B  :5-5-5-5-8-8-8-8-0-0-0-0-1-1-1-1|0-0-0-0-8-8-8-8-7-7-7-7-0-0-0-0|

E  :-------------------------------|-------------------------------|
B  :-------------------------------|-------------------------------|
Gb :-------------------------------|-------------------------------|
B  :5-5-5-5-8-8-8-8-0-0-0-0-1-1-1-1|0-0-0-0-8-8-8-8-7-7-7-7-0-0-0-0|

Db :-------------------------------|-------------------------------|
Ab :-------------------------------|-------------------------------|
E  :-------------------------------|-------------------------------|
B  :-------------------------------|-------------------------------|
Gb :-------------------------------|-------------------------------|
B  :-------------------------------|-------------------------------|

============================================================================

Db :-------------------------------|-------------------------------|
Ab :-------------------------------|-------------------------------|
E  :-------------------------------|-------------------------------|
B  :-------------------------------|-------------------------------|
Gb :-------------------------------|-------------------------------|
B  :5-5-5-5-8-8-8-8-0-0-0-0-4-4-4-4|0-0-0-0-8-8-8-8-7-7-7-7-0-0-0-0|

Db :-------------------------------|-------------------------------|
Ab :-------------------------------|-------------------------------|
E  :-------------------------------|-------------------------------|
B  :-------------------------------|-------------------------------|
Gb :-------------------------------|-------------------------------|
B  :5-5-5-5-8-8-8-8-0-0-0-0-4-4-4-4|0-0-0-0-8-8-8-8-7-7-7-7-0-0-0-0|

E  :-------------------------------|-------------------------------|
B  :-------------------------------|-------------------------------|
Gb :-------------------------------|-------------------------------|
B  :5-5-5-5-8-8-8-8-0-0-0-0-4-4-4-4|0-0-0-0-8-8-8-8-7-7-7-7-0-0-0-0|

Db :-------------------------------|-------------------------------|
Ab :-------------------------------|-------------------------------|
E  :-------------------------------|-------------------------------|
B  :-------------------------------|-------------------------------|
Gb :-------------------------------|-------------------------------|
B  :-------------------------------|-------------------------------|

============================================================================

Db :-------------------------------|--------------------|----------------|
Ab :-------------------------------|--------------------|----------------|
E  :-------------------------------|--------------------|----------------|
B  :-------------------------------|0-0-0---------0-0-0-|----------------|
Gb :-------------------------------|0-0-0*--------0-0-0-|----------------|
B  :5-5-5-5-8-8-8-8-0-0-0-0-1-1-1-1|0-0-0---------0-0-0*|----------------|

Db :-------------------------------|--------------------|----------------|
Ab :-------------------------------|--------------------|----------------|
E  :-------------------------------|--------------------|----------------|
B  :-------------------------------|0-0-0---------0-0-0-|----------------|
Gb :-------------------------------|0-0-0*--------0-0-0*|----------------|
B  :5-5-5-5-8-8-8-8-0-0-0-0-1-1-1-1|0-0-0---------0-0-0-|----------------|

E  :-------------------------------|--------------------|----------------|
B  :-------------------------------|--------------------|----------------|
Gb :-------------------------------|-----*--------------|----------------|
B  :5-5-5-5-8-8-8-8-0-0-0-0-1-1-1-1|0-0-0---------0-0-0*|----------------|

Db :-------------------------------|--------------------|----------------|
Ab :-------------------------------|--------------------|----------------|
E  :-------------------------------|--------------------|----------------|
B  :-------------------------------|--------------------|----------------|
Gb :-------------------------------|--------------------|----------------|
B  :-------------------------------|--------------------|----------------|

============================================================================

Db :------------------|------------------|-------------------------------|
Ab :------------------|------------------|-------------------------------|
E  :------------------|------------------|-------------------------------|
B  :--------0-0-0-----|0-0-0-----0-0-0-0-|0-0-0-------------------0-0-0--|
Gb :--------0-0-0*----|0-0-0*----0-0-0-0-|0-0-0-*-----------------0-0-0-*|
B  :--------0-0-0-----|0-0-0-----0-0-0-0-|0-0-0-------------------0-0-0--|

Db :------------------|------------------|-------------------------------|
Ab :------------------|------------------|-------------------------------|
E  :------------------|------------------|-------------------------------|
B  :--------0-0-0-----|0-0-0-----0-0-0-0-|0-0-0-------------------0-0-0--|
Gb :--------0-0-0*----|0-0-0*----0-0-0-0-|0-0-0-*-----------------0-0-0-*|
B  :--------0-0-0-----|0-0-0-----0-0-0-0-|0-0-0-------------------0-0-0--|

E  :------------------|------------------|-------------------------------|
B  :------------------|------------------|-------------------------------|
Gb :-------------*----|-----*------------|------*------------------------|
B  :--------0-0-0-----|0-0-0-----0-0-0-0-|0-0-0-------------------0-0-0-*|

Db :------------------|------------------|-------------------------------|
Ab :------------------|------------------|-------------------------------|
E  :------------------|------------------|-------------------------------|
B  :------------------|------------------|0-0-0-0-8-8-8-8-7-7-7-7-0-0-0-0|
Gb :------------------|------------------|-------------------------------|
B  :------------------|------------------|-------------------------------|

============================================================================

Db :-------------------------------|-------------------------------|
Ab :-------------------------------|-------------------------------|
E  :-------------------------------|-------------------------------|
B  :-------------------------------|----------------0-0-0----------|
Gb :-------------------------------|----------------0-0-0-*--------|
B  :-------------------------------|----------------0-0-0----------|

Db :-------------------------------|-------------------------------|
Ab :-------------------------------|-------------------------------|
E  :-------------------------------|-------------------------------|
B  :-------------------------------|----------------0-0-0----------|
Gb :-------------------------------|----------------0-0-0-*--------|
B  :-------------------------------|----------------0-0-0----------|

E  :-------------------------------|-------------------------------|
B  :-------------------------------|-------------------------------|
Gb :-------------------------------|----------------------*--------|
B  :-------------------------------|----------------0-0-0----------|

Db :-------------------------------|-------------------------------|
Ab :-------------------------------|-------------------------------|
E  :-------------------------------|-------------------------------|
B  :5-5-5-5-8-8-8-8-0-0-0-0-4-4-4-4|0-0-0-0-8-8-8-8-7-7-7-7-0-0-0-0|
Gb :-------------------------------|-------------------------------|
B  :-------------------------------|-------------------------------|

============================================================================

Db :-------------------------------|----------------|----------------|
Ab :-------------------------------|----------------|----------------|
E  :-------------------------------|----------------|----------------|
B  :0-0-0-----------0---0---0---0--|0---------------|----------------|
Gb :0-0-0-*---------0---0---0---0--|0---------------|----------------|
B  :0-0-0-----------0---0---0---0--|0---------------|----------------|

Db :-------------------------------|----------------|----------------|
Ab :-------------------------------|----------------|----------------|
E  :-------------------------------|----------------|----------------|
B  :0-0-0-----------0---0---0---0--|0---------------|----------------|
Gb :0-0-0-*---------0---0---0---0--|0---------------|----------------|
B  :0-0-0-----------0---0---0---0--|0---------------|----------------|

E  :-------------------------------|----------------|----------------|
B  :-------------------------------|----------------|----------------|
Gb :------*------------------------|----------------|----------------|
B  :0-0-0-----------0---0---0---0--|0---------------|----------------|

Db :-------------------------------|----------------|----------------|
Ab :-------------------------------|----------------|----------------|
E  :-------------------------------|----------------|----------------|
B  :5-5-5-5-8-8-8-8-0-0-0-0-1-1-1-1|*---------------|----------------|
Gb :-------------------------------|----------------|----------------|
B  :-------------------------------|----------------|----------------|

============================================================================

Db :----------------|----------------|----------------|----------------|
Ab :----------------|----------------|----------------|----------------|
E  :----------------|----------------|----------------|----------------|
B  :----------------|----------------|------4-----5---|--8-7-5---5-4---|
Gb :----------------|----------------|6---------------|--------6-----5-|
B  :----------------|----------------|--0-0---0-0---0-|0---------------|

Db :----------------|----------------|----------------|----------------|
Ab :----------------|----------------|----------------|----------------|
E  :----------------|----------------|----------------|----------------|
B  :----------------|----------------|------4-----5---|--8-7-5---5-4---|
Gb :----------------|----------------|6---------------|--------6-----5-|
B  :----------------|----------------|--0-0---0-0---0-|0---------------|

E  :----------------|----------------|----------------|----------------|
B  :----------------|----------------|----------------|----------------|
Gb :----------------|----------------|----------------|--------6-------|
B  :----------------|----------------|1-0-0-4-0-0-5-0-|0-8-7-5---5-4-0-|

Db :----------------|----------------|----------------|----------------|
Ab :----------------|----------------|----------------|----------------|
E  :----------------|----------------|----------------|----------------|
B  :----------------|----------------|----------------|----------------|
Gb :----------------|----------------|----------------|----------------|
B  :----------------|----------------|----------------|----------------|

============================================================================

Db :----------------|----------------|----------------|----------------|
Ab :----------------|----------------|----------------|----------------|
E  :----------------|----------------|----------------|----------------|
B  :----------------|------5-4---7-8-|------4-----5---|--8-7-5---5-4---|
Gb :6-----5---------|----6-----5-----|6---------------|--------6-----5-|
B  :--0-0---0-0-5-0-|8-5-------------|--0-0---0-0---0-|0---------------|

Db :----------------|----------------|----------------|----------------|
Ab :----------------|----------------|----------------|----------------|
E  :----------------|----------------|----------------|----------------|
B  :----------------|------5-4---7-8-|------4-----5---|--8-7-5---5-4---|
Gb :6-----5---------|----6-----5-----|6---------------|--------6-----5-|
B  :--0-0---0-0-5-0-|8-5-------------|--0-0---0-0---0-|0---------------|

E  :----------------|----------------|----------------|----------------|
B  :----------------|----------------|----------------|----------------|
Gb :6-----5---------|----6-----------|----------------|--------6-------|
B  :--0-0---0-0-5-0-|8-5---5-4-0-7-8-|1-0-0-4-0-0-5-0-|0-8-7-5---5-4-0-|

Db :----------------|----------------|----------------|----------------|
Ab :----------------|----------------|----------------|----------------|
E  :----------------|----------------|----------------|----------------|
B  :----------------|----------------|----------------|----------------|
Gb :----------------|----------------|----------------|----------------|
B  :----------------|----------------|----------------|----------------|

============================================================================

Db :----------------|----------------|----------------|----------------|
Ab :----------------|----------------|----------------|----------------|
E  :----------------|----------------|----------------|----------------|
B  :----------------|------5-4---7-8-|------4---------|--4---------4---|
Gb :6-----5---------|----6-----5-----|6-----------6---|--------6-------|
B  :--0-0---0-0-5-0-|8-5-------------|--5-5---5-5---5-|5---5-5---5---5-|

Db :----------------|----------------|----------------|----------------|
Ab :----------------|----------------|----------------|----------------|
E  :----------------|----------------|----------------|----------------|
B  :----------------|------1-0---4-5-|------4---------|--4---------4---|
Gb :6-----5---------|----2-----1-----|6-----------6---|--------6-------|
B  :--0-0---0-0-5-0-|5-1-------------|--5-5---5-5---5-|5---5-5---5---5-|

E  :----------------|----------------|----------------|----------------|
B  :----------------|----------------|----------------|----------------|
Gb :6-----5---------|----6-----------|----------------|----------------|
B  :--0-0---0-0-5-0-|8-5---5-4-0-7-8-|5-5-5-5-5-5-5-5-|5-5-5-5-5-5-5-5-|

Db :----------------|----------------|----------------|----------------|
Ab :----------------|----------------|----------------|----------------|
E  :----------------|----------------|----------------|----------------|
B  :----------------|----------------|----------------|----------------|
Gb :----------------|----------------|----------------|----------------|
B  :----------------|----------------|----------------|----------------|

============================================================================

Db :----------------|----------------|----------------|----------------|
Ab :----------------|----------------|----------------|----------------|
E  :----------------|----------------|----------------|----------------|
B  :5-----8-----5---|--8-----7---7---|------4---------|--4---------4---|
Gb :----------------|----------------|6-----------6---|--------6-------|
B  :--5-5---5-5---5-|5---5-5---5---5-|--5-5---5-5---5-|5---5-5---5---5-|

Db :----------------|----------------|----------------|----------------|
Ab :----------------|----------------|----------------|----------------|
E  :----------------|----------------|----------------|----------------|
B  :5-----8-----5---|--8-----7---7---|------4---------|--4---------4---|
Gb :----------------|----------------|6-----------6---|--------6-------|
B  :--5-5---5-5---5-|5---5-5---5---5-|--5-5---5-5---5-|5---5-5---5---5-|

E  :----------------|----------------|----------------|----------------|
B  :----------------|----------------|----------------|----------------|
Gb :----------------|----------------|----------------|----------------|
B  :5-5-5-8-8-8-5-5-|5-8-8-8-7-7-7-7-|5-5-5-5-5-5-5-5-|5-5-5-5-5-5-5-5-|

Db :----------------|----------------|----------------|----------------|
Ab :----------------|----------------|----------------|----------------|
E  :----------------|----------------|----------------|----------------|
B  :----------------|----------------|----------------|----------------|
Gb :----------------|----------------|----------------|----------------|
B  :----------------|----------------|----------------|----------------|

============================================================================

Db :----------------|----------------|----------------|----------------|
Ab :----------------|----------------|----------------|----------------|
E  :----------------|----------------|----------------|----------------|
B  :5-----8-----5---|--8-----7---7---|------4---------|--4---------4---|
Gb :----------------|----------------|6-----------6---|--------6-------|
B  :--5-5---5-5---5-|5---5-5---5---5-|--5-5---5-5---5-|5---5-5---5---5-|

Db :----------------|----------------|----------------|----------------|
Ab :----------------|----------------|----------------|----------------|
E  :----------------|----------------|----------------|----------------|
B  :5-----8-----5---|--8-----7---7---|------4---------|--4---------4---|
Gb :----------------|----------------|6-----------6---|--------6-------|
B  :--5-5---5-5---5-|5---5-5---5---5-|--5-5---5-5---5-|5---5-5---5---5-|

E  :----------------|----------------|----------------|----------------|
B  :----------------|----------------|----------------|----------------|
Gb :----------------|----------------|----------------|----------------|
B  :5-5-5-8-8-8-5-5-|5-8-8-8-7-7-7-7-|5-5-5-5-5-5-5-5-|5-5-5-5-5-5-5-5-|

Db :----------------|----------------|----------------|----------------|
Ab :----------------|----------------|----------------|----------------|
E  :----------------|----------------|----------------|----------------|
B  :----------------|----------------|----------------|----------------|
Gb :----------------|----------------|----------------|----------------|
B  :----------------|----------------|----------------|----------------|

============================================================================

Db :----------------|----------------|----------------|----------------|
Ab :----------------|----------------|----------------|----------------|
E  :----------------|----------------|----------------|----------------|
B  :5-----8-----5---|--8-----7---7---|------4---------|--4---------4---|
Gb :----------------|----------------|6-----------6---|--------6-------|
B  :--5-5---5-5---5-|5---5-5---5---5-|--5-5---5-5---5-|5---5-5---5---5-|

Db :----------------|----------------|----------------|----------------|
Ab :----------------|----------------|----------------|----------------|
E  :----------------|----------------|----------------|----------------|
B  :5-----8-----5---|--8-----7---7---|------4---------|--4---------4---|
Gb :----------------|----------------|6-----------6---|--------6-------|
B  :--5-5---5-5---5-|5---5-5---5---5-|--5-5---5-5---5-|5---5-5---5---5-|

E  :----------------|----------------|----------------|----------------|
B  :----------------|----------------|----------------|----------------|
Gb :----------------|----------------|----------------|----------------|
B  :5-5-5-8-8-8-5-5-|5-8-8-8-7-7-7-7-|5-5-5-5-5-5-5-5-|5-5-5-5-5-5-5-5-|

Db :----------------|----------------|----------------|----------------|
Ab :----------------|----------------|----------------|----------------|
E  :----------------|----------------|----------------|----------------|
B  :----------------|----------------|----------------|----------------|
Gb :----------------|----------------|----------------|----------------|
B  :----------------|----------------|----------------|----------------|

============================================================================

Db :----------------|----------------|----------------|----------------|
Ab :----------------|----------------|----------------|----------------|
E  :----------------|----------------|----------------|----------------|
B  :8-7-5-4-5-4-----|------------4-5-|------4---------|--4---------4---|
Gb :------------6-5-|--------5-6-----|6-----------6---|--------6-------|
B  :----------------|8-7-5-0---------|--5-5---5-5---5-|5---5-5---5---5-|

Db :----------------|----------------|----------------|----------------|
Ab :----------------|----------------|----------------|----------------|
E  :----------------|----------------|----------------|------------2---|
B  :5-4-------------|----------------|----------------|--------4-------|
Gb :----6-5-6-5-3-1-|--------1-3-5-6-|3-----6-----3---|--6-------------|
B  :----------------|5-4-1-0---------|--5-5---5-5---5-|5---5-5---5---5-|

E  :----------------|----------------|----------------|----------------|
B  :----------------|----------------|----------------|----------------|
Gb :----------------|----------------|----------------|----------------|
B  :5-5-5-8-8-8-5-5-|5-8-8-8-7-7-7-7-|5-5-5-5-5-5-5-5-|5-5-5-5-5-5-5-5-|

Db :----------------|----------------|----------------|----------------|
Ab :----------------|----------------|----------------|----------------|
E  :----------------|----------------|----------------|----------------|
B  :----------------|----------------|----------------|----------------|
Gb :----------------|----------------|----------------|----------------|
B  :----------------|----------------|----------------|----------------|

============================================================================

Db :----------------|----------------|----------------|----------------|
Ab :----------------|----------------|----------------|----------------|
E  :----------------|----------------|----------------|----------------|
B  :5-----8-----5---|--8-----7---7---|------4---------|--4---------4---|
Gb :----------------|----------------|6-----------6---|--------6-------|
B  :--5-5---5-5---5-|5---5-5---5---5-|--5-5---5-5---5-|5---5-5---5---5-|

Db :----------------|----------------|----------------|----------------|
Ab :----------------|----------------|----------------|----------------|
E  :3-----7-----3---|--7-----5---5---|----------------|----------------|
B  :----------------|----------------|----------------|------------4---|
Gb :----------------|----------------|3-----6-----3---|--6-----6-------|
B  :--5-5---5-5---5-|5---5-5---5---5-|--5-5---5-5---5-|5---5-5---5---5-|

E  :----------------|----------------|----------------|----------------|
B  :----------------|----------------|----------------|----------------|
Gb :----------------|----------------|----------------|----------------|
B  :5-5-5-8-8-8-5-5-|5-8-8-8-7-7-7-7-|5-5-5-5-5-5-5-5-|5-5-5-5-5-5-5-5-|

Db :----------------|----------------|----------------|----------------|
Ab :----------------|----------------|----------------|----------------|
E  :----------------|----------------|----------------|----------------|
B  :----------------|----------------|----------------|----------------|
Gb :----------------|----------------|----------------|----------------|
B  :----------------|----------------|----------------|----------------|

============================================================================

Db :----------------|----------------|----------------|
Ab :----------------|----------------|----------------|
E  :----------------|----------------|----------------|
B  :8-7-5-4-5-4-----|------------4-5-|7---------------|
Gb :------------6-5-|--------5-6-----|--------0-0-0-0-|
B  :----------------|8-7-5-0---------|--------0-0-0-0-|

Db :----------------|----------------|----------------|
Ab :----------------|----------------|----------------|
E  :----------------|----------------|----------------|
B  :5-4-------------|----------------|4---------------|
Gb :----6-5-6-5-3-1-|--------1-3-5-6-|--------0-0-0-0-|
B  :----------------|5-4-1-0---------|--------0-0-0-0-|

E  :----------------|----------------|----------------|
B  :----------------|------------4-5-|----------------|
Gb :----------------|--------5-6-----|----------------|
B  :5-5-5-8-8-8-5-5-|8-7-5-0---------|7-------0-0-0-0-|

Db :----------------|----------------|----------------|
Ab :----------------|----------------|----------------|
E  :----------------|----------------|----------------|
B  :----------------|----------------|----------------|
Gb :----------------|----------------|----------------|
B  :----------------|----------------|----------------|

============================================================================

Db :------------------------|----------------|----------------|
Ab :------------------------|----------------|----------------|
E  :------------------------|----------------|----------------|
B  :------------------------|----------------|------------4-5-|
Gb :0--0-0--0--0-0--0-*-0-*-|----0-0-0-0-0-0-|--------5-6-----|
B  :0--0-0--0--0-0--0---0-*-|----0-0-0-0-0-0-|8-7-5-0---------|

Db :------------------------|----------------|----------------|
Ab :------------------------|----------------|----------------|
E  :------------------------|----------------|----------------|
B  :------------------------|----------------|----------------|
Gb :0--0-0--0--0-0--0-*-0-*-|----0-0-0-0-0-0-|--------1-3-5-6-|
B  :0--0-0--0--0-0--0---0---|----0-0-0-0-0-0-|5-4-1-0---------|

E  :------------------------|----------------|----------------|
B  :------------------------|----------------|------------4-5-|
Gb :------------------*---*-|----------------|--------5-6-----|
B  :0--0-0--0--0-0--0---0---|----0-0-0-0-0-0-|8-7-5-0---------|

Db :------------------------|----------------|----------------|
Ab :------------------------|----------------|----------------|
E  :------------------------|----------------|----------------|
B  :------------------------|----------------|----------------|
Gb :------------------------|----------------|----------------|
B  :------------------------|----------------|----------------|

============================================================================

Db :----------------|------------------------|----------------|
Ab :----------------|------------------------|----------------|
E  :----------------|------------------------|----------------|
B  :8---------------|------------------------|----------------|
Gb :--------1-1-1-1-|1--1-1--1--1-1--1-*-1-*-|----1-1-1-1-1-1-|
B  :--------1-1-1-1-|1--1-1--1--1-1--1---1-*-|----1-1-1-1-1-1-|

Db :----------------|------------------------|----------------|
Ab :----------------|------------------------|----------------|
E  :----------------|------------------------|----------------|
B  :5---------------|------------------------|----------------|
Gb :--------1-1-1-1-|1--1-1--1--1-1--1-*-1-*-|----1-1-1-1-1-1-|
B  :--------1-1-1-1-|1--1-1--1--1-1--1---1-*-|----1-1-1-1-1-1-|

E  :----------------|------------------------|----------------|
B  :----------------|------------------------|----------------|
Gb :----------------|------------------*---*-|----------------|
B  :8-------1-1-1-1-|1--1-1--1--1-1--1---1---|----1-1-1-1-1-1-|

Db :----------------|------------------------|----------------|
Ab :----------------|------------------------|----------------|
E  :----------------|------------------------|----------------|
B  :----------------|------------------------|----------------|
Gb :----------------|------------------------|----------------|
B  :----------------|------------------------|----------------|

============================================================================

Db :----------------|----------------|------------------------|
Ab :----------------|----------------|------------------------|
E  :----------------|----------------|------------------------|
B  :------------4-5-|7---------------|------------------------|
Gb :--------5-6-----|--------0-0-0-0-|0--0-0--0--0-0--0-*-0-*-|
B  :8-7-5-0---------|--------0-0-0-0-|0--0-0--0--0-0--0---0-*-|

Db :----------------|----------------|------------------------|
Ab :----------------|----------------|------------------------|
E  :----------------|----------------|------------------------|
B  :----------------|4---------------|------------------------|
Gb :--------1-3-5-6-|--------0-0-0-0-|0--0-0--0--0-0--0-*-0-*-|
B  :5-4-1-0---------|--------0-0-0-0-|0--0-0--0--0-0--0---0---|

E  :----------------|----------------|------------------------|
B  :------------4-5-|----------------|------------------------|
Gb :--------5-6-----|----------------|------------------*---*-|
B  :8-7-5-0---------|7-------0-0-0-0-|0--0-0--0--0-0--0---0---|

Db :----------------|----------------|------------------------|
Ab :----------------|----------------|------------------------|
E  :----------------|----------------|------------------------|
B  :----------------|----------------|------------------------|
Gb :----------------|----------------|------------------------|
B  :----------------|----------------|------------------------|

============================================================================

Db :----------------|----------------|----------------|
Ab :----------------|----------------|----------------|
E  :----------------|----------------|----------------|
B  :----------------|------------4-5-|8---------------|
Gb :----0-0-0-0-0-0-|--------5-6-----|--------1-1-1-1-|
B  :----0-0-0-0-0-0-|8-7-5-0---------|--------1-1-1-1-|

Db :----------------|----------------|----------------|
Ab :----------------|----------------|----------------|
E  :----------------|----------------|----------------|
B  :----------------|----------------|5---------------|
Gb :----0-0-0-0-0-0-|--------1-3-5-6-|--------1-1-1-1-|
B  :----0-0-0-0-0-0-|5-4-1-0---------|--------1-1-1-1-|

E  :----------------|----------------|----------------|
B  :----------------|------------4-5-|----------------|
Gb :----------------|--------5-6-----|----------------|
B  :----0-0-0-0-0-0-|8-7-5-0---------|8-------1-1-1-1-|

Db :----------------|----------------|----------------|
Ab :----------------|----------------|----------------|
E  :----------------|----------------|----------------|
B  :----------------|----------------|----------------|
Gb :----------------|----------------|----------------|
B  :----------------|----------------|----------------|

============================================================================

Db :------------------------|----------------|----------------|
Ab :------------------------|----------------|----------------|
E  :------------------------|----------------|----------------|
B  :------------------------|----------------|------------4-5-|
Gb :1--1-1--1--1-1--1-*-1-*-|----1-1-1-1-1-1-|--------5-6-----|
B  :1--1-1--1--1-1--1---1-*-|----1-1-1-1-1-1-|8-7-5-0---------|

Db :------------------------|----------------|----------------|
Ab :------------------------|----------------|----------------|
E  :------------------------|----------------|----------------|
B  :------------------------|----------------|----------------|
Gb :1--1-1--1--1-1--1-*-1-*-|----1-1-1-1-1-1-|--------1-3-5-6-|
B  :1--1-1--1--1-1--1---1-*-|----1-1-1-1-1-1-|5-4-1-0---------|

E  :------------------------|----------------|----------------|
B  :------------------------|----------------|------------4-5-|
Gb :------------------*---*-|----------------|--------5-6-----|
B  :1--1-1--1--1-1--1---1---|----1-1-1-1-1-1-|8-7-5-0---------|

Db :------------------------|----------------|----------------|
Ab :------------------------|----------------|----------------|
E  :------------------------|----------------|----------------|
B  :------------------------|----------------|----------------|
Gb :------------------------|----------------|----------------|
B  :------------------------|----------------|----------------|

============================================================================

Db :----------------|------------------------|----------------|
Ab :----------------|------------------------|----------------|
E  :----------------|------------------------|----------------|
B  :7---------------|------------------------|----------------|
Gb :--------0-0-0-0-|0--0-0--0--0-0--0-*-0-*-|----0-0-0-0-0-0-|
B  :--------0-0-0-0-|0--0-0--0--0-0--0---0-*-|----0-0-0-0-0-0-|

Db :----------------|------------------------|----------------|
Ab :----------------|------------------------|----------------|
E  :----------------|------------------------|----------------|
B  :4---------------|------------------------|----------------|
Gb :--------0-0-0-0-|0--0-0--0--0-0--0-*-0-*-|----0-0-0-0-0-0-|
B  :--------0-0-0-0-|0--0-0--0--0-0--0---0---|----0-0-0-0-0-0-|

E  :----------------|------------------------|----------------|
B  :----------------|------------------------|----------------|
Gb :----------------|------------------*---*-|----------------|
B  :7-------0-0-0-0-|0--0-0--0--0-0--0---0---|----0-0-0-0-0-0-|

Db :----------------|------------------------|----------------|
Ab :----------------|------------------------|----------------|
E  :----------------|------------------------|----------------|
B  :7---------------|----------------7-8-7---|----------------|
Gb :----------------|------------------------|----------------|
B  :----------------|------------------------|----------------|

============================================================================

Db :----------------|-----------------|------------------------|
Ab :----------------|-----------------|------------------------|
E  :----------------|-----------------|------------------------|
B  :------------4-5-|-8---------------|------------------------|
Gb :--------5-6-----|---------1-1-1-1-|1--1-1--1--1-1--1-*-1-*-|
B  :8-7-5-0---------|---------1-1-1-1-|1--1-1--1--1-1--1---1-*-|

Db :----------------|-----------------|------------------------|
Ab :----------------|-----------------|------------------------|
E  :----------------|-----------------|------------------------|
B  :----------------|-5---------------|------------------------|
Gb :--------1-3-5-6-|---------1-1-1-1-|1--1-1--1--1-1--1-*-1-*-|
B  :5-4-1-0---------|---------1-1-1-1-|1--1-1--1--1-1--1---1-*-|

E  :----------------|-----------------|------------------------|
B  :------------4-5-|-----------------|------------------------|
Gb :--------5-6-----|-----------------|------------------*---*-|
B  :8-7-5-0---------|-8-------1-1-1-1-|1--1-1--1--1-1--1---1---|

Db :----------------|-----------------|------------------------|
Ab :----------------|-----------------|------------------------|
E  :----------------|-----------------|----------------7-------|
B  :----------------|10-----------8---|------------------------|
Gb :----------------|-----------------|------------------------|
B  :----------------|-----------------|------------------------|

============================================================================

Db :----------------|----------------|----------------|
Ab :----------------|----------------|----------------|
E  :----------------|----------------|----------------|
B  :----------------|------------4-5-|7---------------|
Gb :----1-1-1-1-1-1-|--------5-6-----|--------0-0-0-0-|
B  :----1-1-1-1-1-1-|8-7-5-0---------|--------0-0-0-0-|

Db :----------------|----------------|----------------|
Ab :----------------|----------------|----------------|
E  :----------------|----------------|----------------|
B  :----------------|----------------|4---------------|
Gb :----1-1-1-1-1-1-|--------1-3-5-6-|--------0-0-0-0-|
B  :----1-1-1-1-1-1-|5-4-1-0---------|--------0-0-0-0-|

E  :----------------|----------------|----------------|
B  :----------------|------------4-5-|----------------|
Gb :----------------|--------5-6-----|----------------|
B  :----1-1-1-1-1-1-|8-7-5-0---------|7-------0-0-0-0-|

Db :----------------|----------------|----------------|
Ab :----------------|----------------|----------------|
E  :----------------|8-------7-------|----------------|
B  :----7-----------|----------------|7---------------|
Gb :----------------|----------------|----------------|
B  :----------------|----------------|----------------|

============================================================================

Db :------------------------|----------------|----------------|
Ab :------------------------|----------------|----------------|
E  :------------------------|----------------|----------------|
B  :------------------------|----------------|------------4-5-|
Gb :0--0-0--0--0-0--0-*-0-*-|----0-0-0-0-0-0-|--------5-6-----|
B  :0--0-0--0--0-0--0---0-*-|----0-0-0-0-0-0-|8-7-5-0---------|

Db :------------------------|----------------|----------------|
Ab :------------------------|----------------|----------------|
E  :------------------------|----------------|----------------|
B  :------------------------|----------------|----------------|
Gb :0--0-0--0--0-0--0-*-0-*-|----0-0-0-0-0-0-|--------1-3-5-6-|
B  :0--0-0--0--0-0--0---0---|----0-0-0-0-0-0-|5-4-1-0---------|

E  :------------------------|----------------|----------------|
B  :------------------------|----------------|------------4-5-|
Gb :------------------*---*-|----------------|--------5-6-----|
B  :0--0-0--0--0-0--0---0---|----0-0-0-0-0-0-|8-7-5-0---------|

Db :------------------------|----------------|----------------|
Ab :------------------------|----------------|----------------|
E  :------------------------|----------------|----------------|
B  :----------------7-8-7---|----------------|----------------|
Gb :------------------------|----------------|----------------|
B  :------------------------|----------------|----------------|

============================================================================

Db :-----------------|------------------------|----------------|
Ab :-----------------|------------------------|----------------|
E  :-----------------|------------------------|----------------|
B  :-8---------------|------------------------|----------------|
Gb :---------1-1-1-1-|1--1-1--1--1-1--1-*-1-*-|----1-1-1-1-1-1-|
B  :---------1-1-1-1-|1--1-1--1--1-1--1---1-*-|----1-1-1-1-1-1-|

Db :-----------------|------------------------|----------------|
Ab :-----------------|------------------------|----------------|
E  :-----------------|------------------------|----------------|
B  :-5---------------|------------------------|----------------|
Gb :---------1-1-1-1-|1--1-1--1--1-1--1-*-1-*-|----1-1-1-1-1-1-|
B  :---------1-1-1-1-|1--1-1--1--1-1--1---1-*-|----1-1-1-1-1-1-|

E  :-----------------|------------------------|----------------|
B  :-----------------|------------------------|----------------|
Gb :-----------------|------------------*---*-|----------------|
B  :-8-------1-1-1-1-|1--1-1--1--1-1--1---1---|----1-1-1-1-1-1-|

Db :-----------------|------------------------|----------------|
Ab :-----------------|------------------------|----------------|
E  :-----------------|----------------7-------|----------------|
B  :10-----------8---|------------------------|----7-----------|
Gb :-----------------|------------------------|----------------|
B  :-----------------|------------------------|----------------|

============================================================================

Db :----------------|----------------|----------------|----------------|
Ab :----------------|----------------|----------------|----------------|
E  :----------------|----------------|----------------|----------------|
B  :------------4-5-|0---------------|0-0-0-0-0-0---0-|0---0-0-----0-0-|
Gb :--------5-6-----|0---------------|0-0-0-0-0-0---0-|0---0-0-----0-0-|
B  :8-7-5-0---------|0---------------|0-0-0-0-0-0-*-0-|0-*-0-0-*---0-0-|

Db :----------------|----------------|----------------|----------------|
Ab :----------------|----------------|----------------|----------------|
E  :----------------|----------------|----------------|----------------|
B  :----------------|0---------------|0-0-0-0-0-0---0-|0---0-0-----0-0-|
Gb :--------1-3-5-6-|0---------------|0-0-0-0-0-0---0-|0---0-0-----0-0-|
B  :5-4-1-0---------|0---------------|0-0-0-0-0-0-*-0-|0-*-0-0-*---0-0-|

E  :----------------|----------------|----------------|----------------|
B  :------------4-5-|----------------|----------------|----------------|
Gb :--------5-6-----|----------------|----------------|----------------|
B  :8-7-5-0---------|0---------------|0-0-0-0-0-0-*-0-|0-*-0-0-*---0-0-|

Db :----------------|----------------|----------------|----------------|
Ab :----------------|----------------|----------------|----------------|
E  :8-------7-------|----------------|*---------------|----------------|
B  :----------------|----------------|----------------|----------------|
Gb :----------------|----------------|----------------|----------------|
B  :----------------|----------------|----------------|----------------|

============================================================================

Db :----------------|----------------|----------------|----------------|
Ab :----------------|----------------|----------------|----------------|
E  :----------------|----------------|----------------|----------------|
B  :0-0-0-0---0-0---|0-0-----0-0-0-0-|0-0---0-0---0-0-|----0-0-0-0-0-0-|
Gb :0-0-0-0---0-0---|0-0-----0-0-0-0-|0-0---0-0---0-0-|----0-0-0-0-0-0-|
B  :0-0-0-0-*-0-0-*-|0-0-*---0-0-0-0-|0-0-*-0-0-*-0-0-|*---0-0-0-0-0-0-|

Db :----------------|----------------|----------------|----------------|
Ab :----------------|----------------|----------------|----------------|
E  :----------------|----------------|----------------|----------------|
B  :0-0-0-0---0-0---|0-0-----0-0-0-0-|0-0---0-0---0-0-|----0-0-0-0-0-0-|
Gb :0-0-0-0---0-0---|0-0-----0-0-0-0-|0-0---0-0---0-0-|----0-0-0-0-0-0-|
B  :0-0-0-0-*-0-0-*-|0-0-*---0-0-0-0-|0-0-*-0-0-*-0-0-|*---0-0-0-0-0-0-|

E  :----------------|----------------|----------------|----------------|
B  :----------------|----------------|----------------|----------------|
Gb :----------------|----------------|----------------|----------------|
B  :0-0-0-0-*-0-0-*-|0-0-*---0-0-0-0-|0-0-*-0-0-*-0-0-|*---0-0-0-0-0-0-|

Db :----------------|----------------|----------------|----------------|
Ab :----------------|----------------|----------------|----------------|
E  :----------------|----------------|----------------|----------------|
B  :----------------|----------------|----------------|----------------|
Gb :----------------|----------------|----------------|----------------|
B  :----------------|----------------|----------------|----------------|

============================================================================

Db :----------------|----------------|------------------|------------------|
Ab :----------------|----------------|------------------|------------------|
E  :----------------|----------------|------------------|------------------|
B  :0-0---0-0-------|0-0-0-0-0-0-----|12-8-0-8-7-0--7-8-|12-8-0-8--7-0-7-8-|
Gb :0-0---0-0-------|0-0-0-0-0-0-----|------------------|------------------|
B  :0-0-*-0-0-*-----|0-0-0-0-0-0-*---|------------------|------------------|

Db :----------------|----------------|------------------|------------------|
Ab :----------------|----------------|------------------|------------------|
E  :----------------|----------------|------------------|------------------|
B  :0-0---0-0-------|0-0-0-0-0-0-----|12-8-0-8-7-0-12-8-|-0-8-7-0-12-8-0-8-|
Gb :0-0---0-0-------|0-0-0-0-0-0-----|------------------|------------------|
B  :0-0-*-0-0-*-----|0-0-0-0-0-0-*---|------------------|------------------|

E  :----------------|----------------|------------------|------------------|
B  :----------------|----------------|------------------|------------------|
Gb :----------------|----------------|------------------|------------------|
B  :0-0-*-0-0-*-----|0-0-0-0-0-0-*---|-0-0-0-0-0-0--*-0-|-0-*-0-0--*---0-0-|

Db :----------------|----------------|------------------|------------------|
Ab :----------------|----------------|------------------|------------------|
E  :----------------|----------------|------------------|------------------|
B  :----------------|----------------|-0-0-0-0-0-0----0-|-0---0-0------0-0-|
Gb :----------------|----------------|-0-0-0-0-0-0----0-|-0---0-0------0-0-|
B  :----------------|----------------|-0-0-0-0-0-0--*-0-|-0-*-0-0--*---0-0-|

============================================================================

Db :------------------|------------------|------------------|
Ab :------------------|------------------|------------------|
E  :------------------|------------------|------------------|
B  :12-8--0-8-7-0-7-8-|12-8-0-8-7-0--7-8-|12-8-0-8--7-0-7-8-|
Gb :------------------|------------------|------------------|
B  :------------------|------------------|------------------|

Db :------------------|------------------|------------------|
Ab :------------------|------------------|------------------|
E  :------------------|------------------|------------------|
B  :-7-0-12-8-0-8-7-0-|12-8-0-8-7-0-12-8-|-0-8-7-0-12-8-0-8-|
Gb :------------------|------------------|------------------|
B  :------------------|------------------|------------------|

E  :------------------|------------------|------------------|
B  :------------------|------------------|------------------|
Gb :------------------|------------------|------------------|
B  :-0-0--0-0-*-0-0-*-|-0-0-*---0-0--0-0-|-0-0-*-0--0-*-0-0-|

Db :------------------|------------------|------------------|
Ab :------------------|------------------|------------------|
E  :------------------|------------------|------------------|
B  :-0-0--0-0---0-0---|-0-0-----0-0--0-0-|-0-0---0--0---0-0-|
Gb :-0-0--0-0---0-0---|-0-0-----0-0--0-0-|-0-0---0--0---0-0-|
B  :-0-0--0-0-*-0-0-*-|-0-0-*---0-0--0-0-|-0-0-*-0--0-*-0-0-|

============================================================================

Db :------------------|-----------------|-----------------|
Ab :------------------|-----------------|-----------------|
E  :------------------|-----------------|-----------------|
B  :12-8--0-8-7-0-7-8-|12-8-0-8-7-0-7-8-|12-8-0-8-7-0-7-8-|
Gb :------------------|-----------------|-----------------|
B  :------------------|-----------------|-----------------|

Db :------------------|-----------------|-----------------|
Ab :------------------|-----------------|-----------------|
E  :------------------|-----------------|-----------------|
B  :-7-0-12-8-0-8-7-0-|12-8-0-8-7-0-7-8-|12-8-0-8-7-0-7-8-|
Gb :------------------|-----------------|-----------------|
B  :------------------|-----------------|-----------------|

E  :------------------|-----------------|-----------------|
B  :------------------|-----------------|-----------------|
Gb :------------------|-----------------|-----------------|
B  :-*----0-0-0-0-0-0-|-0-0-*-0-0-*-----|-0-0-0-0-0-0-*---|

Db :------------------|-----------------|-----------------|
Ab :------------------|-----------------|-----------------|
E  :------------------|-----------------|-----------------|
B  :------0-0-0-0-0-0-|-0-0---0-0-------|-0-0-0-0-0-0-----|
Gb :------0-0-0-0-0-0-|-0-0---0-0-------|-0-0-0-0-0-0-----|
B  :-*----0-0-0-0-0-0-|-0-0-*-0-0-*-----|-0-0-0-0-0-0-*---|

============================================================================

Db :------------------|------------------|------------------|
Ab :------------------|------------------|------------------|
E  :------------------|------------------|------------------|
B  :12-8-0-8-7-0--7-8-|12-8-0-8--7-0-7-8-|12-8--0-8-7-0-7-8-|
Gb :------------------|------------------|------------------|
B  :------------------|------------------|------------------|

Db :------------------|------------------|------------------|
Ab :------------------|------------------|------------------|
E  :------------------|------------------|------------------|
B  :12-8-0-8-7-0-12-8-|-0-8-7-0-12-8-0-8-|-7-0-12-8-0-8-7-0-|
Gb :------------------|------------------|------------------|
B  :------------------|------------------|------------------|

E  :------------------|------------------|------------------|
B  :------------------|------------------|------------------|
Gb :------------------|------------------|------------------|
B  :-0----------------|------------------|------------------|

Db :------------------|------------------|------------------|
Ab :------------------|------------------|------------------|
E  :------------------|------------------|------------------|
B  :-0----------------|------------------|------------------|
Gb :-0----------------|------------------|------------------|
B  :-0----------------|------------------|------------------|

============================================================================

Db :------------------|------------------|------------------|
Ab :------------------|------------------|------------------|
E  :------------------|------------------|------------------|
B  :12-8-0-8-7-0--7-8-|12-8-0-8--7-0-7-8-|12-8--0-8-7-0-7-8-|
Gb :------------------|------------------|------------------|
B  :------------------|------------------|------------------|

Db :------------------|------------------|------------------|
Ab :------------------|------------------|------------------|
E  :------------------|------------------|------------------|
B  :12-8-0-8-7-0-12-8-|-0-8-7-0-12-8-0-8-|-7-0-12-8-0-8-7-0-|
Gb :------------------|------------------|------------------|
B  :------------------|------------------|------------------|

E  :------------------|------------------|------------------|
B  :------------------|------------------|------------------|
Gb :------------------|------------------|------------------|
B  :------------------|------------------|------------------|

Db :------------------|------------------|------------------|
Ab :------------------|------------------|------------------|
E  :------------------|------------------|------------------|
B  :------------------|------------------|------------------|
Gb :------------------|------------------|------------------|
B  :------------------|------------------|------------------|

============================================================================

Db :-----------------|-----------------|------------------|
Ab :-----------------|-----------------|------------------|
E  :-----------------|-----------------|------------------|
B  :12-8-0-8-7-0-7-8-|12-8-0-8-7-0-7-8-|12-8-0-8-7-0--7-8-|
Gb :-----------------|-----------------|------------------|
B  :-----------------|-----------------|------------------|

Db :-----------------|-----------------|------------------|
Ab :-----------------|-----------------|------------------|
E  :-----------------|-----------------|------------------|
B  :-*---------------|-----------------|12-8-0-8-7-0-12-8-|
Gb :-----------------|-----------------|------------------|
B  :-----------------|-----------------|------------------|

E  :-----------------|-----------------|------------------|
B  :-----------------|-----------------|------------------|
Gb :-----------------|-----------------|------------------|
B  :-*---------------|-----------------|-0-0-0-0-0-0--*-0-|

Db :-----------------|-----------------|------------------|
Ab :-----------------|-----------------|------------------|
E  :-----------------|-----------------|------------------|
B  :-----------------|-----------------|-0-0-0-0-0-0----0-|
Gb :-----------------|-----------------|-0-0-0-0-0-0----0-|
B  :-*---------------|-----------------|-0-0-0-0-0-0--*-0-|

============================================================================

Db :------------------|------------------|------------------|
Ab :------------------|------------------|------------------|
E  :------------------|------------------|------------------|
B  :12-8-0-8--7-0-7-8-|12-8--0-8-7-0-7-8-|12-8-0-8-7-0--7-8-|
Gb :------------------|------------------|------------------|
B  :------------------|------------------|------------------|

Db :------------------|------------------|------------------|
Ab :------------------|------------------|------------------|
E  :------------------|------------------|------------------|
B  :-0-8-7-0-12-8-0-8-|-7-0-12-8-0-8-7-0-|12-8-0-8-7-0-12-8-|
Gb :------------------|------------------|------------------|
B  :------------------|------------------|------------------|

E  :------------------|------------------|------------------|
B  :------------------|------------------|------------------|
Gb :------------------|------------------|------------------|
B  :-0-*-0-0--*---0-0-|-0-0--0-0-*-0-0-*-|-0-0-*---0-0--0-0-|

Db :------------------|------------------|------------------|
Ab :------------------|------------------|------------------|
E  :------------------|------------------|------------------|
B  :-0---0-0------0-0-|-0-0--0-0---0-0---|-0-0-----0-0--0-0-|
Gb :-0---0-0------0-0-|-0-0--0-0---0-0---|-0-0-----0-0--0-0-|
B  :-0-*-0-0--*---0-0-|-0-0--0-0-*-0-0-*-|-0-0-*---0-0--0-0-|

============================================================================

Db :------------------|------------------|-----------------|
Ab :------------------|------------------|-----------------|
E  :------------------|------------------|-----------------|
B  :12-8-0-8--7-0-7-8-|12-8--0-8-7-0-7-8-|12-8-0-8-7-0-7-8-|
Gb :------------------|------------------|-----------------|
B  :------------------|------------------|-----------------|

Db :------------------|------------------|-----------------|
Ab :------------------|------------------|-----------------|
E  :------------------|------------------|-----------------|
B  :-0-8-7-0-12-8-0-8-|-7-0-12-8-0-8-7-0-|12-8-0-8-7-0-7-8-|
Gb :------------------|------------------|-----------------|
B  :------------------|------------------|-----------------|

E  :------------------|------------------|-----------------|
B  :------------------|------------------|-----------------|
Gb :------------------|------------------|-----------------|
B  :-0-0-*-0--0-*-0-0-|-*----0-0-0-0-0-0-|-0-0-*-0-0-*-----|

Db :------------------|------------------|-----------------|
Ab :------------------|------------------|-----------------|
E  :------------------|------------------|-----------------|
B  :-0-0---0--0---0-0-|------0-0-0-0-0-0-|-0-0---0-0-------|
Gb :-0-0---0--0---0-0-|------0-0-0-0-0-0-|-0-0---0-0-------|
B  :-0-0-*-0--0-*-0-0-|-*----0-0-0-0-0-0-|-0-0-*-0-0-*-----|

============================================================================

Db :-----------------|------------------|------------------|
Ab :-----------------|------------------|------------------|
E  :-----------------|------------------|------------------|
B  :12-8-0-8-7-0-7-8-|12-8-0-8-7-0--7-8-|12-8-0-8--7-0-7-8-|
Gb :-----------------|------------------|------------------|
B  :-----------------|------------------|------------------|

Db :-----------------|------------------|------------------|
Ab :-----------------|------------------|------------------|
E  :-----------------|------------------|------------------|
B  :12-8-0-8-7-0-7-8-|12-8-0-8-7-0-12-8-|-0-8-7-0-12-8-0-8-|
Gb :-----------------|------------------|------------------|
B  :-----------------|------------------|------------------|

E  :-----------------|------------------|------------------|
B  :-----------------|------------------|------------------|
Gb :-----------------|------------------|------------------|
B  :-0-0-0-0-0-0-*---|-0-0-0-0-0-0--*-0-|-0-*-0-0--*---0-0-|

Db :-----------------|------------------|------------------|
Ab :-----------------|------------------|------------------|
E  :-----------------|------------------|------------------|
B  :-0-0-0-0-0-0-----|-0-0-0-0-0-0----0-|-0---0-0------0-0-|
Gb :-0-0-0-0-0-0-----|-0-0-0-0-0-0----0-|-0---0-0------0-0-|
B  :-0-0-0-0-0-0-*---|-0-0-0-0-0-0--*-0-|-0-*-0-0--*---0-0-|

============================================================================

Db :------------------|------------------|------------------|
Ab :------------------|------------------|------------------|
E  :------------------|------------------|------------------|
B  :12-8--0-8-7-0-7-8-|12-8-0-8-7-0--7-8-|12-8-0-8--7-0-7-8-|
Gb :------------------|------------------|------------------|
B  :------------------|------------------|------------------|

Db :------------------|------------------|------------------|
Ab :------------------|------------------|------------------|
E  :------------------|------------------|------------------|
B  :-7-0-12-8-0-8-7-0-|12-8-0-8-7-0-12-8-|-0-8-7-0-12-8-0-8-|
Gb :------------------|------------------|------------------|
B  :------------------|------------------|------------------|

E  :------------------|------------------|------------------|
B  :------------------|------------------|------------------|
Gb :------------------|------------------|------------------|
B  :-0-0--0-0-*-0-0-*-|-0-0-*---0-0--0-0-|-0-0-*-0--0-*-0-0-|

Db :------------------|------------------|------------------|
Ab :------------------|------------------|------------------|
E  :------------------|------------------|------------------|
B  :-0-0--0-0---0-0---|-0-0-----0-0--0-0-|-0-0---0--0---0-0-|
Gb :-0-0--0-0---0-0---|-0-0-----0-0--0-0-|-0-0---0--0---0-0-|
B  :-0-0--0-0-*-0-0-*-|-0-0-*---0-0--0-0-|-0-0-*-0--0-*-0-0-|

============================================================================

Db :------------------|-----------------|-----------------|
Ab :------------------|-----------------|-----------------|
E  :------------------|-----------------|-----------------|
B  :12-8--0-8-7-0-7-8-|12-8-0-8-7-0-7-8-|12-8-0-8-7-0-7-8-|
Gb :------------------|-----------------|-----------------|
B  :------------------|-----------------|-----------------|

Db :------------------|-----------------|-----------------|
Ab :------------------|-----------------|-----------------|
E  :------------------|-----------------|-----------------|
B  :-7-0-12-8-0-8-7-0-|12-8-0-8-7-0-7-8-|12-8-0-8-7-0-7-8-|
Gb :------------------|-----------------|-----------------|
B  :------------------|-----------------|-----------------|

E  :------------------|-----------------|-----------------|
B  :------------------|-----------------|-----------------|
Gb :------------------|-----------------|-----------------|
B  :-*----0-0-0-0-0-0-|-0-0-*-0-0-*-----|-0-0-0-0-0-0-*---|

Db :------------------|-----------------|-----------------|
Ab :------------------|-----------------|-----------------|
E  :------------------|-----------------|-----------------|
B  :------0-0-0-0-0-0-|-0-0---0-0-------|-0-0-0-0-0-0-----|
Gb :------0-0-0-0-0-0-|-0-0---0-0-------|-0-0-0-0-0-0-----|
B  :-*----0-0-0-0-0-0-|-0-0-*-0-0-*-----|-0-0-0-0-0-0-*---|

============================================================================

Db :-----------------|-----------------|-----------------|-----------------|
Ab :-----------------|-----------------|-----------------|-----------------|
E  :-----------------|-----------------|-----------------|-----------------|
B  :-0---------------|-----------------|-----------------|-----------------|
Gb :-0---------------|-----------------|-----------------|-----------------|
B  :-0---------------|-----------------|-----------------|-----------------|

Db :-----------------|-----------------|-----------------|-----------------|
Ab :-----------------|-----------------|-----------------|-----------------|
E  :-----------------|-----------------|-----------------|-----------------|
B  :-0---------------|-----------------|-----------------|-----------------|
Gb :-0---------------|-----------------|-----------------|-----------------|
B  :-0---------------|-----------------|-----------------|-----------------|

E  :-----------------|-----------------|-----------------|-----------------|
B  :-----------------|-----------------|-----------------|-----------------|
Gb :-----------------|-----------------|-----------------|-----------------|
B  :-0---------------|-----------------|-----------------|-----------------|

Db :-----------------|-----------------|-----------------|-----------------|
Ab :-----------------|-----------------|-----------------|-----------------|
E  :-----------------|-----------------|-----------------|-----------------|
B  :12-8-0-8-7-0-7-8-|12-8-0-8-7-0-7-8-|12-8-0-8-7-0-7-8-|12-8-0-8-7-0-7-8-|
Gb :-----------------|-----------------|-----------------|-----------------|
B  :-----------------|-----------------|-----------------|-----------------|

============================================================================

Db :-----------------|-----------------|-----------------|-----------------|
Ab :-----------------|-----------------|-----------------|-----------------|
E  :-----------------|-----------------|-----------------|-----------------|
B  :-0---------------|-----------------|-----------------|-----------------|
Gb :-0---------------|-----------------|-----------------|-----------------|
B  :-0---------------|-----------------|-----------------|-----------------|

Db :-----------------|-----------------|-----------------|-----------------|
Ab :-----------------|-----------------|-----------------|-----------------|
E  :-----------------|-----------------|-----------------|-----------------|
B  :-0---------------|-----------------|-----------------|-----------------|
Gb :-0---------------|-----------------|-----------------|-----------------|
B  :-0---------------|-----------------|-----------------|-----------------|

E  :-----------------|-----------------|-----------------|-----------------|
B  :-----------------|-----------------|-----------------|-----------------|
Gb :-----------------|-----------------|-----------------|-----------------|
B  :-0---------------|-----------------|-----------------|-----------------|

Db :-----------------|-----------------|-----------------|-----------------|
Ab :-----------------|-----------------|-----------------|-----------------|
E  :-----------------|-----------------|-----------------|-----------------|
B  :12-8-0-8-7-0-7-8-|12-8-0-8-7-0-7-8-|12-8-0-8-7-0-7-8-|12-8-0-8-7-0-7-8-|
Gb :-----------------|-----------------|-----------------|-----------------|
B  :-----------------|-----------------|-----------------|-----------------|

============================================================================

Db :----------------|----------------|----------------|----------------|
Ab :----------------|----------------|----------------|----------------|
E  :----------------|----------------|----------------|----------------|
B  :------5-4---7-8-|------4---------|--4---------4---|5-----8-----5---|
Gb :----6-----5-----|6-----------6---|--------6-------|----------------|
B  :8-5-------------|--5-5---5-5---5-|5---5-5---5---5-|--5-5---5-5---5-|

Db :----------------|----------------|----------------|----------------|
Ab :----------------|----------------|----------------|----------------|
E  :----------------|----------------|----------------|----------------|
B  :------1-0---4-5-|------4---------|--4---------4---|5-----8-----5---|
Gb :----2-----1-----|6-----------6---|--------6-------|----------------|
B  :5-1-------------|--5-5---5-5---5-|5---5-5---5---5-|--5-5---5-5---5-|

E  :----------------|----------------|----------------|----------------|
B  :----------------|----------------|----------------|----------------|
Gb :----------------|----------------|----------------|----------------|
B  :*---------------|5-5-5-5-5-5-5-5-|5-5-5-5-5-5-5-5-|5-5-5-8-8-8-5-5-|

Db :----------------|----------------|----------------|----------------|
Ab :----------------|----------------|----------------|----------------|
E  :----------------|----------------|----------------|----------------|
B  :*---------------|----------------|----------------|----------------|
Gb :----------------|----------------|----------------|----------------|
B  :----------------|----------------|----------------|----------------|

============================================================================

Db :----------------|----------------|----------------|----------------|
Ab :----------------|----------------|----------------|----------------|
E  :----------------|----------------|----------------|----------------|
B  :--8-----7---7---|------4---------|--4---------4---|5-----8-----5---|
Gb :----------------|6-----------6---|--------6-------|----------------|
B  :5---5-5---5---5-|--5-5---5-5---5-|5---5-5---5---5-|--5-5---5-5---5-|

Db :----------------|----------------|----------------|----------------|
Ab :----------------|----------------|----------------|----------------|
E  :----------------|----------------|----------------|----------------|
B  :--8-----7---7---|------4---------|--4---------4---|5-----8-----5---|
Gb :----------------|6-----------6---|--------6-------|----------------|
B  :5---5-5---5---5-|--5-5---5-5---5-|5---5-5---5---5-|--5-5---5-5---5-|

E  :----------------|----------------|----------------|----------------|
B  :----------------|----------------|----------------|----------------|
Gb :----------------|----------------|----------------|----------------|
B  :5-8-8-8-7-7-7-7-|5-5-5-5-5-5-5-5-|5-5-5-5-5-5-5-5-|5-5-5-8-8-8-5-5-|

Db :----------------|----------------|----------------|----------------|
Ab :----------------|----------------|----------------|----------------|
E  :----------------|----------------|----------------|----------------|
B  :----------------|----------------|----------------|----------------|
Gb :----------------|----------------|----------------|----------------|
B  :----------------|----------------|----------------|----------------|

============================================================================

Db :----------------|----------------|----------------|----------------|
Ab :----------------|----------------|----------------|----------------|
E  :----------------|----------------|----------------|----------------|
B  :--8-----7---7---|------4---------|--4---------4---|5-----8-----5---|
Gb :----------------|6-----------6---|--------6-------|----------------|
B  :5---5-5---5---5-|--5-5---5-5---5-|5---5-5---5---5-|--5-5---5-5---5-|

Db :----------------|----------------|----------------|----------------|
Ab :----------------|----------------|----------------|----------------|
E  :----------------|----------------|----------------|----------------|
B  :--8-----7---7---|------4---------|--4---------4---|5-----8-----5---|
Gb :----------------|6-----------6---|--------6-------|----------------|
B  :5---5-5---5---5-|--5-5---5-5---5-|5---5-5---5---5-|--5-5---5-5---5-|

E  :----------------|----------------|----------------|----------------|
B  :----------------|----------------|----------------|----------------|
Gb :----------------|----------------|----------------|----------------|
B  :5-8-8-8-7-7-7-7-|5-5-5-5-5-5-5-5-|5-5-5-5-5-5-5-5-|5-5-5-8-8-8-5-5-|

Db :----------------|----------------|----------------|----------------|
Ab :----------------|----------------|----------------|----------------|
E  :----------------|----------------|----------------|----------------|
B  :----------------|----------------|----------------|----------------|
Gb :----------------|----------------|----------------|----------------|
B  :----------------|----------------|----------------|----------------|

============================================================================

Db :----------------|----------------|----------------|----------------|
Ab :----------------|----------------|----------------|----------------|
E  :----------------|----------------|----------------|----------------|
B  :--8-----7---7---|------4---------|--4---------4---|8-7-5-4-5-4-----|
Gb :----------------|6-----------6---|--------6-------|------------6-5-|
B  :5---5-5---5---5-|--5-5---5-5---5-|5---5-5---5---5-|----------------|

Db :----------------|----------------|----------------|----------------|
Ab :----------------|----------------|----------------|----------------|
E  :----------------|----------------|----------------|----------------|
B  :--8-----7---7---|------4---------|--4---------4---|5-4-------------|
Gb :----------------|6-----------6---|--------6-------|----6-5-6-5-3-1-|
B  :5---5-5---5---5-|--5-5---5-5---5-|5---5-5---5---5-|----------------|

E  :----------------|----------------|----------------|----------------|
B  :----------------|----------------|----------------|----------------|
Gb :----------------|----------------|----------------|----------------|
B  :5-8-8-8-7-7-7-7-|5-5-5-5-5-5-5-5-|5-5-5-5-5-5-5-5-|5-5-5-8-8-8-5-5-|

Db :----------------|----------------|----------------|----------------|
Ab :----------------|----------------|----------------|----------------|
E  :----------------|----------------|----------------|----------------|
B  :----------------|----------------|----------------|----------------|
Gb :----------------|----------------|----------------|----------------|
B  :----------------|----------------|----------------|----------------|

============================================================================

Db :----------------|----------------|----------------|----------------|
Ab :----------------|----------------|----------------|----------------|
E  :----------------|----------------|----------------|----------------|
B  :------------4-5-|------4---------|--4---------4---|5-----8-----5---|
Gb :--------5-6-----|6-----------6---|--------6-------|----------------|
B  :8-7-5-0---------|--5-5---5-5---5-|5---5-5---5---5-|--5-5---5-5---5-|

Db :----------------|----------------|----------------|----------------|
Ab :----------------|----------------|----------------|----------------|
E  :----------------|----------------|------------2---|3-----7-----3---|
B  :----------------|----------------|--------4-------|----------------|
Gb :--------1-3-5-6-|3-----6-----3---|--6-------------|----------------|
B  :5-4-1-0---------|--5-5---5-5---5-|5---5-5---5---5-|--5-5---5-5---5-|

E  :----------------|----------------|----------------|----------------|
B  :----------------|----------------|----------------|----------------|
Gb :----------------|----------------|----------------|----------------|
B  :5-8-8-8-7-7-7-7-|5-5-5-5-5-5-5-5-|5-5-5-5-5-5-5-5-|5-5-5-8-8-8-5-5-|

Db :----------------|----------------|----------------|----------------|
Ab :----------------|----------------|----------------|----------------|
E  :----------------|----------------|----------------|----------------|
B  :----------------|----------------|----------------|----------------|
Gb :----------------|----------------|----------------|----------------|
B  :----------------|----------------|----------------|----------------|

============================================================================

Db :----------------|----------------|----------------|----------------|
Ab :----------------|----------------|----------------|----------------|
E  :----------------|----------------|----------------|----------------|
B  :--8-----7---7---|------4---------|--4---------4---|8-7-5-4-5-4-----|
Gb :----------------|6-----------6---|--------6-------|------------6-5-|
B  :5---5-5---5---5-|--5-5---5-5---5-|5---5-5---5---5-|----------------|

Db :----------------|----------------|----------------|----------------|
Ab :----------------|----------------|----------------|----------------|
E  :--7-----5---5---|----------------|----------------|----------------|
B  :----------------|----------------|------------4---|5-4-------------|
Gb :----------------|3-----6-----3---|--6-----6-------|----6-5-6-5-3-1-|
B  :5---5-5---5---5-|--5-5---5-5---5-|5---5-5---5---5-|----------------|

E  :----------------|----------------|----------------|----------------|
B  :----------------|----------------|----------------|----------------|
Gb :----------------|----------------|----------------|----------------|
B  :5-8-8-8-7-7-7-7-|5-5-5-5-5-5-5-5-|5-5-5-5-5-5-5-5-|5-5-5-8-8-8-5-5-|

Db :----------------|----------------|----------------|----------------|
Ab :----------------|----------------|----------------|----------------|
E  :----------------|----------------|----------------|----------------|
B  :----------------|----------------|----------------|----------------|
Gb :----------------|----------------|----------------|----------------|
B  :----------------|----------------|----------------|----------------|

============================================================================

Db :----------------|----------------|----------------|----------------|
Ab :----------------|----------------|----------------|----------------|
E  :----------------|----------------|----------------|----------------|
B  :------------4-5-|------4---------|--4---------4---|5-----8-----5---|
Gb :--------5-6-----|6-----------6---|--------6-------|----------------|
B  :8-7-5-0---------|--5-5---5-5---5-|5---5-5---5---5-|--5-5---5-5---5-|

Db :----------------|----------------|----------------|----------------|
Ab :----------------|----------------|----------------|----------------|
E  :----------------|----------------|------------2---|3-----7-----3---|
B  :----------------|----------------|--------4-------|----------------|
Gb :--------1-3-5-6-|3-----6-----3---|--6-------------|----------------|
B  :5-4-1-0---------|--5-5---5-5---5-|5---5-5---5---5-|--5-5---5-5---5-|

E  :----------------|----------------|----------------|----------------|
B  :----------------|----------------|----------------|----------------|
Gb :----------------|----------------|----------------|----------------|
B  :5-8-8-8-7-7-7-7-|5-5-5-5-5-5-5-5-|5-5-5-5-5-5-5-5-|5-5-5-8-8-8-5-5-|

Db :----------------|----------------|----------------|----------------|
Ab :----------------|----------------|----------------|----------------|
E  :----------------|----------------|----------------|----------------|
B  :----------------|----------------|----------------|----------------|
Gb :----------------|----------------|----------------|----------------|
B  :----------------|----------------|----------------|----------------|

============================================================================

Db :----------------|----------------|----------------|----------------|
Ab :----------------|----------------|----------------|----------------|
E  :----------------|----------------|----------------|----------------|
B  :--8-----7---7---|------4---------|--4---------4---|8-7-5-4-5-4-----|
Gb :----------------|6-----------6---|--------6-------|------------6-5-|
B  :5---5-5---5---5-|--5-5---5-5---5-|5---5-5---5---5-|----------------|

Db :----------------|----------------|----------------|----------------|
Ab :----------------|----------------|----------------|----------------|
E  :--7-----5---5---|----------------|----------------|----------------|
B  :----------------|----------------|------------4---|5-4-------------|
Gb :----------------|3-----6-----3---|--6-----6-------|----6-5-6-5-3-1-|
B  :5---5-5---5---5-|--5-5---5-5---5-|5---5-5---5---5-|----------------|

E  :----------------|----------------|----------------|----------------|
B  :----------------|----------------|----------------|----------------|
Gb :----------------|----------------|----------------|----------------|
B  :5-8-8-8-7-7-7-7-|5-5-5-5-5-5-5-5-|5-5-5-5-5-5-5-5-|5-5-5-8-8-8-5-5-|

Db :----------------|----------------|----------------|----------------|
Ab :----------------|----------------|----------------|----------------|
E  :----------------|----------------|----------------|----------------|
B  :----------------|----------------|----------------|----------------|
Gb :----------------|----------------|----------------|----------------|
B  :----------------|----------------|----------------|----------------|

============================================================================

Db :----------------|----------------|----------------|----------------|
Ab :----------------|----------------|----------------|----------------|
E  :----------------|----------------|----------------|----------------|
B  :------------4-5-|----------------|----------------|----------------|
Gb :--------5-6-----|1-0-------------|----------------|1-0-------------|
B  :8-7-5-0---------|----5-0-0-0-0-0-|0-0-4-5-7-5-4-0-|----5-0-0-0-0-0-|

Db :----------------|----------------|----------------|----------------|
Ab :----------------|----------------|----------------|----------------|
E  :----------------|----------------|----------------|----------------|
B  :----------------|----------------|----------------|----------------|
Gb :--------1-3-5-6-|*---------------|----------------|1-0-------------|
B  :5-4-1-0---------|----------------|----------------|----5-0-0-0-0-0-|

E  :----------------|----------------|----------------|----------------|
B  :------------4-5-|----------------|----------------|----------------|
Gb :--------5-6-----|----------------|----------------|1-0-------------|
B  :8-7-5-0---------|*---------------|----------------|----5-0-0-0-0-0-|

Db :----------------|----------------|----------------|----------------|
Ab :----------------|----------------|----------------|----------------|
E  :----------------|----------------|----------------|----------------|
B  :----------------|----------------|----------------|----------------|
Gb :----------------|----------------|----------------|----------------|
B  :----------------|----------------|----------------|----------------|

============================================================================

Db :----------------|----------------|----------------|----------------|
Ab :----------------|----------------|----------------|----------------|
E  :----------------|----------------|----------------|----------------|
B  :----------------|----------------|----------------|----------------|
Gb :----------------|1-0-------------|----------------|1-0-------------|
B  :0-0-4-5-7-5-4-0-|----5-0-0-0-0-0-|0-0-4-5-7-5-4-0-|----5-0-1-1-1-1-|

Db :----------------|----------------|----------------|----------------|
Ab :----------------|----------------|----------------|----------------|
E  :----------------|----------------|----------------|----------------|
B  :----------------|----------------|----------------|----------------|
Gb :----------------|1-0-------------|----------------|1-0-------------|
B  :0-0-4-5-7-5-4-0-|----5-0-0-0-0-0-|0-0-4-5-7-5-4-0-|----5-0-1-1-1-1-|

E  :----------------|----------------|----------------|----------------|
B  :----------------|----------------|----------------|----------------|
Gb :----------------|1-0-------------|----------------|1-0-------------|
B  :0-0-4-5-7-5-4-0-|----5-0-0-0-0-0-|0-0-4-5-7-5-4-0-|----5-0-1-1-1-1-|

Db :----------------|----------------|----------------|----------------|
Ab :----------------|----------------|----------------|----------------|
E  :----------------|----------------|----------------|----------------|
B  :----------------|----------------|----------------|----------------|
Gb :----------------|----------------|----------------|----------------|
B  :----------------|----------------|----------------|----------------|

============================================================================

Db :----------------|----------------|----------------|----------------|
Ab :----------------|----------------|----------------|----------------|
E  :----------------|----------------|----------------|----------------|
B  :----------------|----------------|----------------|----------------|
Gb :----------------|1-0-------------|----------------|1-0-------------|
B  :1-1-4-5-7-5-4-5-|----5-0-1-1-1-1-|1-1-4-5-7-5-4-5-|----5-0-0-0-0-0-|

Db :----------------|----------------|----------------|----------------|
Ab :----------------|----------------|----------------|----------------|
E  :----------------|----------------|----------------|----------------|
B  :----------------|----------------|----------------|----------------|
Gb :----------------|1-0-------------|----------------|1-0-------------|
B  :1-1-4-5-7-5-4-5-|----5-0-1-1-1-1-|1-1-4-5-7-5-4-5-|----5-0-0-0-0-0-|

E  :----------------|----------------|----------------|----------------|
B  :----------------|----------------|----------------|----------------|
Gb :----------------|1-0-------------|----------------|1-0-------------|
B  :1-1-4-5-7-5-4-5-|----5-0-1-1-1-1-|1-1-4-5-7-5-4-5-|----5-0-0-0-0-0-|

Db :----------------|----------------|----------------|----------------|
Ab :----------------|----------------|----------------|----------------|
E  :----------------|----------------|----------------|----------------|
B  :----------------|----------------|----------------|----------------|
Gb :----------------|----------------|----------------|----------------|
B  :----------------|----------------|----------------|----------------|

============================================================================

Db :----------------|----------------|----------------|----------------|
Ab :----------------|----------------|----------------|----------------|
E  :----------------|----------------|----------------|----------------|
B  :----------------|----------------|----------------|----------------|
Gb :----------------|1-0-------------|----------------|1-0-------------|
B  :0-0-4-5-7-5-4-0-|----5-0-0-0-0-0-|0-0-4-5-7-5-4-0-|----5-0-1-1-1-1-|

Db :----------------|----------------|----------------|----------------|
Ab :----------------|----------------|----------------|----------------|
E  :----------------|----------------|----------------|----------------|
B  :----------------|----------------|----------------|----------------|
Gb :----------------|1-0-------------|----------------|1-0-------------|
B  :0-0-4-5-7-5-4-0-|----5-0-0-0-0-0-|0-0-4-5-7-5-4-0-|----5-0-1-1-1-1-|

E  :----------------|----------------|----------------|----------------|
B  :----------------|----------------|----------------|----------------|
Gb :----------------|1-0-------------|----------------|1-0-------------|
B  :0-0-4-5-7-5-4-0-|----5-0-0-0-0-0-|0-0-4-5-7-5-4-0-|----5-0-1-1-1-1-|

Db :----------------|----------------|----------------|----------------|
Ab :----------------|----------------|----------------|----------------|
E  :----------------|----------------|----------------|----------------|
B  :----------------|----------------|----------------|----------------|
Gb :----------------|----------------|----------------|----------------|
B  :----------------|----------------|----------------|----------------|

============================================================================

Db :----------------|----------------|----------------|----------------|
Ab :----------------|----------------|----------------|----------------|
E  :----------------|----------------|----------------|----------------|
B  :----------------|----------------|----------------|----------------|
Gb :----------------|1-0-------------|----------------|1-0-------------|
B  :1-1-4-5-7-5-4-5-|----5-0-1-1-1-1-|1-1-4-5-7-*-----|----5-0-0-0-0-0-|

Db :----------------|----------------|----------------|----------------|
Ab :----------------|----------------|----------------|----------------|
E  :----------------|----------------|----------------|----------------|
B  :----------------|----------------|----------------|----------------|
Gb :----------------|1-0-------------|----------------|1-0-------------|
B  :1-1-4-5-7-5-4-5-|----5-0-1-1-1-1-|1-1-4-5-7-*-----|----5-0-0-0-0-0-|

E  :----------------|----------------|----------------|----------------|
B  :----------------|----------------|----------------|----------------|
Gb :----------------|1-0-------------|----------------|1-0-------------|
B  :1-1-4-5-7-5-4-5-|----5-0-1-1-1-1-|1-1-4-5-7-*-----|----5-0-0-0-0-0-|

Db :----------------|----------------|----------------|----------------|
Ab :----------------|----------------|----------------|----------------|
E  :----------------|----------------|----------------|----------------|
B  :----------------|----------------|----------------|7---------------|
Gb :----------------|----------------|----------------|----------------|
B  :----------------|----------------|----------------|----------------|

============================================================================

Db :----------------|----------------|----------------|-----------------|
Ab :----------------|----------------|----------------|-----------------|
E  :----------------|----------------|----------------|-----------------|
B  :----------------|----------------|----------------|-----------------|
Gb :----------------|1-0-------------|----------------|-1-0-------------|
B  :0-0-4-5-7-5-4-0-|----5-0-0-0-0-0-|0-0-4-5-7-5-4-0-|-----5-0-1-1-1-1-|

Db :----------------|----------------|----------------|-----------------|
Ab :----------------|----------------|----------------|-----------------|
E  :----------------|----------------|----------------|-----------------|
B  :----------------|----------------|----------------|-----------------|
Gb :----------------|1-0-------------|----------------|-1-0-------------|
B  :0-0-4-5-7-5-4-0-|----5-0-0-0-0-0-|0-0-4-5-7-5-4-0-|-----5-0-1-1-1-1-|

E  :----------------|----------------|----------------|-----------------|
B  :----------------|----------------|----------------|-----------------|
Gb :----------------|1-0-------------|----------------|-1-0-------------|
B  :0-0-4-5-7-5-4-0-|----5-0-0-0-0-0-|0-0-4-5-7-5-4-0-|-----5-0-1-1-1-1-|

Db :----------------|----------------|----------------|-----------------|
Ab :----------------|----------------|----------------|-----------------|
E  :----------------|----------------|----------------|-----------------|
B  :--------7-8-7---|----------------|----------------|10-----------8---|
Gb :----------------|----------------|----------------|-----------------|
B  :----------------|----------------|----------------|-----------------|

============================================================================

Db :----------------|----------------|----------------|----------------|
Ab :----------------|----------------|----------------|----------------|
E  :----------------|----------------|----------------|----------------|
B  :----------------|----------------|----------------|----------------|
Gb :----------------|1-0-------------|----------------|1-0-------------|
B  :1-1-4-5-7-5-4-5-|----5-0-1-1-1-1-|1-1-4-5-7-5-4-5-|----5-0-0-0-0-0-|

Db :----------------|----------------|----------------|----------------|
Ab :----------------|----------------|----------------|----------------|
E  :----------------|----------------|----------------|----------------|
B  :----------------|----------------|----------------|----------------|
Gb :----------------|1-0-------------|----------------|1-0-------------|
B  :1-1-4-5-7-5-4-5-|----5-0-1-1-1-1-|1-1-4-5-7-5-4-5-|----5-0-0-0-0-0-|

E  :----------------|----------------|----------------|----------------|
B  :----------------|----------------|----------------|----------------|
Gb :----------------|1-0-------------|----------------|1-0-------------|
B  :1-1-4-5-7-5-4-5-|----5-0-1-1-1-1-|1-1-4-5-7-5-4-5-|----5-0-0-0-0-0-|

Db :----------------|----------------|----------------|----------------|
Ab :----------------|----------------|----------------|----------------|
E  :--------7-------|----------------|8-------7-------|----------------|
B  :----------------|----7-----------|----------------|7---------------|
Gb :----------------|----------------|----------------|----------------|
B  :----------------|----------------|----------------|----------------|

============================================================================

Db :----------------|----------------|----------------|-----------------|
Ab :----------------|----------------|----------------|-----------------|
E  :----------------|----------------|----------------|-----------------|
B  :----------------|----------------|----------------|-----------------|
Gb :----------------|1-0-------------|----------------|-1-0-------------|
B  :0-0-4-5-7-5-4-0-|----5-0-0-0-0-0-|0-0-4-5-7-5-4-0-|-----5-0-1-1-1-1-|

Db :----------------|----------------|----------------|-----------------|
Ab :----------------|----------------|----------------|-----------------|
E  :----------------|----------------|----------------|-----------------|
B  :----------------|----------------|----------------|-----------------|
Gb :----------------|1-0-------------|----------------|-1-0-------------|
B  :0-0-4-5-7-5-4-0-|----5-0-0-0-0-0-|0-0-4-5-7-5-4-0-|-----5-0-1-1-1-1-|

E  :----------------|----------------|----------------|-----------------|
B  :----------------|----------------|----------------|-----------------|
Gb :----------------|1-0-------------|----------------|-1-0-------------|
B  :0-0-4-5-7-5-4-0-|----5-0-0-0-0-0-|0-0-4-5-7-5-4-0-|-----5-0-1-1-1-1-|

Db :----------------|----------------|----------------|-----------------|
Ab :----------------|----------------|----------------|-----------------|
E  :----------------|----------------|----------------|-----------------|
B  :--------7-8-7---|----------------|----------------|10-----------8---|
Gb :----------------|----------------|----------------|-----------------|
B  :----------------|----------------|----------------|-----------------|

============================================================================

Db :----------------|----------------|----------------|----------------|
Ab :----------------|----------------|----------------|----------------|
E  :----------------|----------------|----------------|----------------|
B  :----------------|----------------|----------------|----------------|
Gb :----------------|1-0-------------|----------------|1-0-------------|
B  :1-1-4-5-7-5-4-5-|----5-0-1-1-1-1-|1-1-4-5-7-5-4-5-|----5-0-0-0-0-0-|

Db :----------------|----------------|----------------|----------------|
Ab :----------------|----------------|----------------|----------------|
E  :----------------|----------------|----------------|----------------|
B  :----------------|----------------|----------------|----------------|
Gb :----------------|1-0-------------|----------------|1-0-------------|
B  :1-1-4-5-7-5-4-5-|----5-0-1-1-1-1-|1-1-4-5-7-5-4-5-|----5-0-0-0-0-0-|

E  :----------------|----------------|----------------|----------------|
B  :----------------|----------------|----------------|----------------|
Gb :----------------|1-0-------------|----------------|1-0-------------|
B  :1-1-4-5-7-5-4-5-|----5-0-1-1-1-1-|1-1-4-5-7-5-4-5-|----5-0-0-0-0-0-|

Db :----------------|----------------|----------------|----------------|
Ab :----------------|----------------|----------------|----------------|
E  :--------7-------|----------------|8-------7-------|----------------|
B  :----------------|----7-----------|----------------|7---------------|
Gb :----------------|----------------|----------------|----------------|
B  :----------------|----------------|----------------|----------------|

============================================================================

Db :----------------|----------------|----------------|-----------------|
Ab :----------------|----------------|----------------|-----------------|
E  :----------------|----------------|----------------|-----------------|
B  :----------------|----------------|----------------|-----------------|
Gb :----------------|1-0-------------|----------------|-1-0-------------|
B  :0-0-4-5-7-5-4-0-|----5-0-0-0-0-0-|0-0-4-5-7-5-4-0-|-----5-0-1-1-1-1-|

Db :----------------|----------------|----------------|-----------------|
Ab :----------------|----------------|----------------|-----------------|
E  :----------------|----------------|----------------|-----------------|
B  :----------------|----------------|----------------|-----------------|
Gb :----------------|1-0-------------|----------------|-1-0-------------|
B  :0-0-4-5-7-5-4-0-|----5-0-0-0-0-0-|0-0-4-5-7-5-4-0-|-----5-0-1-1-1-1-|

E  :----------------|----------------|----------------|-----------------|
B  :----------------|----------------|----------------|-----------------|
Gb :----------------|1-0-------------|----------------|-1-0-------------|
B  :0-0-4-5-7-5-4-0-|----5-0-0-0-0-0-|0-0-4-5-7-5-4-0-|-----5-0-1-1-1-1-|

Db :----------------|----------------|----------------|-----------------|
Ab :----------------|----------------|----------------|-----------------|
E  :----------------|----------------|----------------|-----------------|
B  :--------7-8-7---|----------------|----------------|10-----------8---|
Gb :----------------|----------------|----------------|-----------------|
B  :----------------|----------------|----------------|-----------------|

============================================================================

Db :----------------|----------------|----------------|----------------|
Ab :----------------|----------------|----------------|----------------|
E  :----------------|----------------|----------------|----------------|
B  :----------------|----------------|----------------|----------------|
Gb :----------------|1-0-------------|----------------|1-0-------------|
B  :1-1-4-5-7-5-4-5-|----5-0-1-1-1-1-|1-1-4-5-7-5-4-5-|----5-0-0-0-0-0-|

Db :----------------|----------------|----------------|----------------|
Ab :----------------|----------------|----------------|----------------|
E  :----------------|----------------|----------------|----------------|
B  :----------------|----------------|----------------|----------------|
Gb :----------------|1-0-------------|----------------|1-0-------------|
B  :1-1-4-5-7-5-4-5-|----5-0-1-1-1-1-|1-1-4-5-7-5-4-5-|----5-0-0-0-0-0-|

E  :----------------|----------------|----------------|----------------|
B  :----------------|----------------|----------------|----------------|
Gb :----------------|1-0-------------|----------------|1-0-------------|
B  :1-1-4-5-7-5-4-5-|----5-0-1-1-1-1-|1-1-4-5-7-5-4-5-|----5-0-0-0-0-0-|

Db :----------------|----------------|----------------|----------------|
Ab :----------------|----------------|----------------|----------------|
E  :--------7-------|----------------|8-------7-------|----------------|
B  :----------------|----7-----------|----------------|7---------------|
Gb :----------------|----------------|----------------|----------------|
B  :----------------|----------------|----------------|----------------|

============================================================================

Db :----------------|----------------|----------------|-----------------|
Ab :----------------|----------------|----------------|-----------------|
E  :----------------|----------------|----------------|-----------------|
B  :----------------|----------------|----------------|-----------------|
Gb :----------------|1-0-------------|----------------|-1-0-------------|
B  :0-0-4-5-7-5-4-0-|----5-0-0-0-0-0-|0-0-4-5-7-5-4-0-|-----5-0-1-1-1-1-|

Db :----------------|----------------|----------------|-----------------|
Ab :----------------|----------------|----------------|-----------------|
E  :----------------|----------------|----------------|-----------------|
B  :----------------|----------------|----------------|-----------------|
Gb :----------------|1-0-------------|----------------|-1-0-------------|
B  :0-0-4-5-7-5-4-0-|----5-0-0-0-0-0-|0-0-4-5-7-5-4-0-|-----5-0-1-1-1-1-|

E  :----------------|----------------|----------------|-----------------|
B  :----------------|----------------|----------------|-----------------|
Gb :----------------|1-0-------------|----------------|-1-0-------------|
B  :0-0-4-5-7-5-4-0-|----5-0-0-0-0-0-|0-0-4-5-7-5-4-0-|-----5-0-1-1-1-1-|

Db :----------------|----------------|----------------|-----------------|
Ab :----------------|----------------|----------------|-----------------|
E  :----------------|----------------|----------------|-----------------|
B  :--------7-8-7---|----------------|----------------|10-----------8---|
Gb :----------------|----------------|----------------|-----------------|
B  :----------------|----------------|----------------|-----------------|

============================================================================

Db :----------------|----------------|----------------|----------------|
Ab :----------------|----------------|----------------|----------------|
E  :----------------|----------------|----------------|----------------|
B  :----------------|----------------|----------------|----------------|
Gb :----------------|1-0-------------|----------------|----------------|
B  :1-1-4-5-7-5-4-5-|----5-0-1-1-1-1-|1-1-4-5-7-5-4-5-|*---------------|

Db :----------------|----------------|----------------|----------------|
Ab :----------------|----------------|----------------|----------------|
E  :----------------|----------------|----------------|----------------|
B  :----------------|----------------|----------------|----------------|
Gb :----------------|1-0-------------|----------------|----------------|
B  :1-1-4-5-7-5-4-5-|----5-0-1-1-1-1-|1-1-4-5-7-5-4-5-|*---------------|

E  :----------------|----------------|----------------|----------------|
B  :----------------|----------------|----------------|----------------|
Gb :----------------|1-0-------------|----------------|----------------|
B  :1-1-4-5-7-5-4-5-|----5-0-1-1-1-1-|1-1-4-5-7-5-4-5-|*---------------|

Db :----------------|----------------|----------------|----------------|
Ab :----------------|----------------|----------------|----------------|
E  :--------7-------|----------------|8-------7-------|----------------|
B  :----------------|----7-----------|----------------|*---------------|
Gb :----------------|----------------|----------------|----------------|
B  :----------------|----------------|----------------|----------------|

============================================================================

Db :----------------|----------------|----------------|----------------|
Ab :----------------|----------------|----------------|----------------|
E  :----------------|----------------|----------------|----------------|
B  :----------------|----------------|----------------|----------------|
Gb :----------------|----------------|----------------|----------------|
B  :----------------|----------------|----------------|----------------|

Db :----------------|----------------|----------------|----------------|
Ab :----------------|----------------|----------------|----------------|
E  :----------------|----------------|----------------|----------------|
B  :----------------|----------------|----------------|----------------|
Gb :----------------|----------------|----------------|----------------|
B  :----------------|----------------|----------------|----------------|

E  :----------------|----------------|----------------|----------------|
B  :----------------|----------------|----------------|----------------|
Gb :----------------|----------------|----------------|----------------|
B  :----------------|----------------|----------------|----------------|

Db :----------------|----------------|----------------|----------------|
Ab :----------------|----------------|----------------|----------------|
E  :----------------|----------------|----------------|----------------|
B  :----------------|----------------|----------------|----------------|
Gb :----------------|----------------|----------------|----------------|
B  :----------------|----------------|----------------|----------------|

============================================================================

Db :----------------|----------------|----------------|
Ab :----------------|----------------|----------------|
E  :----------------|----------------|----------------|
B  :----------------|----------------|----------------|
Gb :----------------|----------------|----------------|
B  :----------------|----------------|----------------|

Db :----------------|----------------|----------------|
Ab :----------------|----------------|----------------|
E  :----------------|----------------|----------------|
B  :----------------|----------------|----------------|
Gb :----------------|----------------|----------------|
B  :----------------|----------------|----------------|

E  :----------------|----------------|----------------|
B  :----------------|----------------|----------------|
Gb :----------------|----------------|----------------|
B  :----------------|----------------|----------------|

Db :----------------|----------------|----------------|
Ab :----------------|----------------|----------------|
E  :----------------|----------------|----------------|
B  :----------------|----------------|----------------|
Gb :----------------|----------------|----------------|
B  :----------------|----------------|----------------|
comments
We did not receive enough feedback on this tab! Please rate:
print report bad tab
1 2 3 4 5
I want to post or [tab]
guest
You may want to rate the tab now too:
select rating
Please do not post tabs as comments. Select "correction" instead!