Oops, an error
Loading. Please wait.

In Reference To A Sinking Ship - Defeated Tab

262 views 1 this week
no commentswrite comment
1 2 3 4 5
please rate
add to favorites launch autoscroll
font size
0
reset
Autoscroll
+/-
esc
set tempo
stop
Contributor
Difficulty
Tuning
intermediate
B F# B E G# C#
WARNING: You are trying to view
                                    content from Ultimate-Guitar.com
                                    in an unauthorized application,
                                    which is prohibited.

                                    Please use an official Ultimate
                                    Guitar Tabs application for iPhone,
                                    iPad or Android to access legitimate
                                    chords, guitar, bass, and drum tabs
                                    from Ultimate-Guitar.com database.

                                    Type "ultimate guitar tabs" in Apple
                                    App Store's or Android Market's
                                    search to find the application.
Defeated by In Reference to a Sinking Ship
Line 1 - Right Guitar
Line 2 - Left Guitar
Line 3 - Bass

Db :--------------------|-----------------------|--------------------|
Ab :--------------------|-----------------------|--------------------|
E  :--------------------|-----------------------|--------------------|
B  :--------------------|-----------------------|--------------------|
Gb :5-----------5-------|--------1--------------|4-------------------|
B  :----0-0-0-0-----8---|0-0-0-0-----5---0-0-0-0|----0-0-0-0-4---7---|

Db :--------------------|-----------------------|--------------------|
Ab :--------------------|-----------------------|--------------------|
E  :--------------------|-----------------------|--------------------|
B  :--------------------|-----------------------|2-------------------|
Gb :--------------------|--------5---1----------|------------0---4---|
B  :--------------------|----------------0-0-0-0|----0-0-0-0---------|

E  :--------------------|-----------------------|--------------------|
B  :--------------------|-----------------------|2-------------------|
Gb :--------------------|-----------------------|------------0---4---|
B  :--------------------|----------------0-0-0-0|----0-0-0-0---------|

============================================================================

Db :--------------------|| --------------------|-----------------------|
Ab :--------------------|| --------------------|-----------------------|
E  :--------------------||*--------------------|-----------------------|
B  :--------------------||*--------------------|-----------------------|
Gb :--------4-----------|| 5-----------5-------|--------1--------------|
B  :0-0-0-0-----7---4---|| ----0-0-0-0-----8---|0-0-0-0-----5---0-0-0-0|

Db :--------------------|| --------------------|-----------------------|
Ab :--------------------|| --------------------|-----------------------|
E  :--------------------||*--------------------|-----------------------|
B  :--------2-----------||*3-----------3-------|-----------------------|
Gb :------------4---0---|| ----------------5---|--------5---1----------|
B  :0-0-0-0-------------|| ----0-0-0-0---------|0-0-0-----------0-0-0-0|

E  :--------------------|| --------------------|-----------------------|
B  :--------2-----------||*--------------------|-----------------------|
Gb :------------4---0---||*5-----------5-------|--------1--------------|
B  :0-0-0-0-------------|| ----0-0-0-0-----8---|0-0-0-------5---0-0-0-0|

============================================================================

Db :--------------------|--------------------|--------------------|
Ab :--------------------|--------------------|--------------------|
E  :--------------------|--------------------|--------------------|
B  :--------------------|--------------------|--------------------|
Gb :4-------------------|--------4-----------|5-----------5-------|
B  :----0-0-0-0-4---7---|0-0-0-0-----7---4---|----0-0-0-0-----8---|

Db :--------------------|--------------------|--------------------|
Ab :--------------------|--------------------|--------------------|
E  :--------------------|--------------------|--------------------|
B  :2-------------------|--------2-----------|3-----------3-------|
Gb :------------0---4---|------------4---0---|----------------5---|
B  :----0-0-0-0---------|0-0-0-0-------------|----0-0-0-0---------|

E  :--------------------|--------------------|--------------------|
B  :--------------------|--------------------|--------------------|
Gb :4-------------------|--------4-----------|5-----------5-------|
B  :----0-0-0-0-4---7---|0-0-0-0-----7---4---|----0-0-0-0-----8---|

============================================================================

Db :-----------------------|--------------------|-------------------- 1|
Ab :-----------------------|--------------------|-------------------- ||
E  :-----------------------|--------------------|--------------------*||
B  :-----------------------|--------------------|--------------------*||
Gb :--------1--------------|4-------------------|--------4----------- ||
B  :0-0-0-0-----5---0-0-0-0|----0-0-0-0-4---7---|0-0-0-0-----7---4--- ||

Db :-----------------------|--------------------|-------------------- 1|
Ab :-----------------------|--------------------|-------------------- ||
E  :-----------------------|--------------------|--------------------*||
B  :-----------------------|2-------------------|--------2-----------*||
Gb :--------5---1----------|------------0---4---|------------4---0--- ||
B  :0-0-0-----------0-0-0-0|----0-0-0-0---------|0-0-0-0------------- ||

E  :-----------------------|--------------------|-------------------- 1|
B  :-----------------------|--------------------|--------------------*||
Gb :--------1--------------|4-------------------|--------4-----------*||
B  :0-0-0-------5---0-0-0-0|----0-0-0-0-4---7---|0-0-0-0-----7---4--- ||

============================================================================

Db :----------------|----------------|----------------|----------------|
Ab :----------------|----------------|----------------|----------------|
E  :----------------|----------------|----------------|----------------|
B  :5-0-------------|----------------|5---*-----------|----------------|
Gb :----------6---5-|--5-9---6---5-6-|5---------------|----------------|
B  :----0-5-0---0---|0-----0---0-----|5---------------|----------------|

Db :----------------|----------------|----------------|----------------|
Ab :----------------|----------------|----------------|----------------|
E  :----------------|----------------|----------------|----------------|
B  :5---------------|----------------|5---------------|----------------|
Gb :5---------------|----------------|5---------------|--------6-5-6-9-|
B  :5---------------|----------------|5---*-----------|----------------|

E  :----------------|----------------|----------------|----------------|
B  :----------------|----------------|----------------|----------------|
Gb :----------------|----------------|----------------|----------------|
B  :5---------------|----------------|5---*-----------|----------------|

============================================================================

Db :----------------|----------------|----------------|----------------|
Ab :----------------|----------------|----------------|----------------|
E  :----------------|----------------|----------------|----------------|
B  :--------------8-|--7---5-4-------|----------------|------4-------4-|
Gb :----------------|------------5---|----------------|--6-------5-6---|
B  :8-7-8---5-5-5---|5---5-----0---0-|1-0-1---1-1-1-1-|4---4---4-------|

Db :----------------|----------------|----------------|----------------|
Ab :----------------|----------------|----------------|----------------|
E  :----------------|----------------|----------------|----------------|
B  :5-4-5---------8-|--7---5-4-------|----------------|------4-------4-|
Gb :----------------|------------5---|6-5-6-----------|--6-------5-6---|
B  :--------5-5-5---|5---5-----0---0-|--------1-1-1-1-|4---4---4-------|

E  :----------------|----------------|----------------|----------------|
B  :----------------|----------------|----------------|----------------|
Gb :----------------|----------------|----------------|----------------|
B  :5-4-5---5-5-5-8-|5-7-5-5-5-0-0-0-|1-0-1---1-1-1-1-|4-4-4-4-4-0-1-4-|

============================================================================

Db :----------------|----------------|----------------|----------------|
Ab :----------------|----------------|----------------|----------------|
E  :----------------|----------------|----------------|----------------|
B  :--------------8-|--7---5-4-------|----------------|----------------|
Gb :----------------|------------5---|----------------|--5---3---0-1---|
B  :8-7-8---5-5-5---|5---5-----5---5-|1-0-1---1-1-1-1-|4---0---0-----0-|

Db :----------------|----------------|----------------|----------------|
Ab :----------------|----------------|----------------|----------------|
E  :----------------|----------------|----------------|----------------|
B  :5-4-5---------8-|--7---5-4-------|----------------|----------------|
Gb :----------------|------------5---|6-5-6-----------|--5---3---0-1---|
B  :--------5-5-5---|5---5-----5---5-|--------1-1-1-1-|4---0---0-----0-|

E  :----------------|----------------|----------------|----------------|
B  :----------------|----------------|----------------|----------------|
Gb :----------------|----------------|----------------|----------------|
B  :5-4-5---5-5-5-8-|5-7-5-5-5-0-0-0-|1-0-1---1-1-1-1-|0-0-0-0-4-4-4-4-|

============================================================================

Db :----------------|----------------|----------------|----------------|
Ab :----------------|----------------|----------------|----------------|
E  :----------------|----------------|----------------|----------------|
B  :5-4-5-8---7---5-|4---------------|------4-----5---|4-----5-----7---|
Gb :----------------|--5---5-----5---|6---------------|----------------|
B  :--------0---0---|----0---0-0-----|--0-0---0-0---0-|--0-0---0-0---0-|

Db :----------------|----------------|----------------|----------------|
Ab :----------------|----------------|----------------|----------------|
E  :----------------|----------------|----------------|----------------|
B  :5-4-5-8---7---5-|4---------------|----------------|------------4---|
Gb :----------------|--5---5-----1---|3-----5-----6---|5-----6---------|
B  :--------0---0---|----0---0-0-----|--0-0---0-0---0-|--0-0---0-0---0-|

E  :----------------|----------------|----------------|----------------|
B  :----------------|----------------|----------------|----------------|
Gb :----------------|----------------|----------------|----------------|
B  :5-4-5-8-0-7-0-5-|4-0-0-0-0-0-0---|1-0-0-4-0-0-5-0-|4-0-0-5-0-0-7-0-|

============================================================================

Db :----------------|----------------|----------------|----------------|
Ab :----------------|----------------|----------------|----------------|
E  :----------------|----------------|----------------|----------------|
B  :5-4-5-8---7---5-|4---------------|----------------|--------4-------|
Gb :----------------|--5---5-----5---|--------5-------|----------------|
B  :--------0---0---|----0---0-0-----|1---------------|4---------------|

Db :----------------|----------------|----------------|----------------|
Ab :----------------|----------------|----------------|----------------|
E  :----------------|----------------|----------------|--------2-------|
B  :5-4-5-8---7---5-|4---------------|--------4-------|----------------|
Gb :----------------|--5---5-----1---|----------------|0---------------|
B  :--------0---0---|----0---0-0-----|5---------------|----------------|

E  :----------------|----------------|----------------|----------------|
B  :----------------|----------------|----------------|--------4-------|
Gb :----------------|----------------|--------5-------|----------------|
B  :5-4-5-8-0-7-0-5-|4-0-0-0-0-0-0---|1---------------|4---------------|

============================================================================

Db :----------------|----------------|----------------|----------------|
Ab :----------------|----------------|----------------|----------------|
E  :----------------|----------------|----------------|----------------|
B  :5-4-5-8---7---5-|4---------------|------4-----5---|4-----5-----7---|
Gb :----------------|--5---5-----5---|6---------------|----------------|
B  :--------0---0---|----0---0-0-----|--0-0---0-0---0-|--0-0---0-0---0-|

Db :----------------|----------------|----------------|----------------|
Ab :----------------|----------------|----------------|----------------|
E  :----------------|----------------|----------------|----------------|
B  :----*---*-------|----------------|----------------|----*---*----*--|
Gb :0-0---0---------|----0---0-------|--------0-*-----|0-0---0---0-0---|
B  :0-0---0---------|----0-*-0-*-----|--------0-------|0-0---0---0-0---|

E  :----------------|----------------|----------------|----------------|
B  :----------------|----------------|----------------|----------------|
Gb :----------------|----------------|----------------|----------------|
B  :0-0-*-0-*-------|----0-*-0-*-----|--------0--*----|0-0-*-0-*-0-0*--|

============================================================================

Db :----------------|----------------|----------------|----------------|
Ab :----------------|----------------|----------------|----------------|
E  :----------------|----------------|----------------|----------------|
B  :5-4-5-8---7---5-|4---------------|------4-----5---|4-----5-----7---|
Gb :----------------|--5---5-----5---|6---------------|----------------|
B  :--------0---0---|----0---0-0-----|--0-0---0-0---0-|--0-0---0-0---0-|

Db :----------------|----------------|----------------|----------------|
Ab :----------------|----------------|----------------|----------------|
E  :----------------|----------------|----------------|----------------|
B  :----*---*-------|----------------|----------------|----*---*----*--|
Gb :0-0---0---------|----0---0-------|--------0-*-----|0-0---0---0-0---|
B  :0-0---0---------|----0-*-0-*-----|--------0-------|0-0---0---0-0---|

E  :----------------|----------------|----------------|----------------|
B  :----------------|----------------|----------------|----------------|
Gb :----------------|----------------|----------------|----------------|
B  :0-0-*-0-*-------|----0-*-0-*-----|--------0--*----|0-0-*-0-*-0-0*--|

============================================================================

Db :----------------|----------------|----------------|----------------|
Ab :----------------|----------------|----------------|----------------|
E  :----------------|----------------|----------------|----------------|
B  :5-4-5-8---7---5-|4---------------|------4-----5---|4-----5-----7---|
Gb :----------------|--5---5-----5---|6---------------|----------------|
B  :--------0---0---|----0---0-0-----|--0-0---0-0---0-|--0-0---0-0---0-|

Db :----------------|----------------|----------------|----------------|
Ab :----------------|----------------|----------------|----------------|
E  :----------------|----------------|----------------|----------------|
B  :----*---*-------|----------------|----------------|----*---*----*--|
Gb :0-0---0---------|----0---0-------|--------0-*-----|0-0---0---0-0---|
B  :0-0---0---------|----0-*-0-*-----|--------0-------|0-0---0---0-0---|

E  :----------------|----------------|----------------|----------------|
B  :----------------|----------------|----------------|----------------|
Gb :----------------|----------------|----------------|----------------|
B  :0-0-*-0-*-------|----0-*-0-*-----|--------0--*----|0-0-*-0-*-0-0*--|

============================================================================

Db :----------------|----------------|----------------|----------------|
Ab :----------------|----------------|----------------|----------------|
E  :----------------|----------------|----------------|----------------|
B  :5-4-5-8---7---5-|4---------------|------4-----5---|4-----5-----7---|
Gb :----------------|--5---5-----5---|6---------------|----------------|
B  :--------0---0---|----0---0-0-----|--0-0---0-0---0-|--0-0---0-0-----|

Db :----------------|----------------|----------------|----------------|
Ab :----------------|----------------|----------------|----------------|
E  :----------------|----------------|----------------|----------------|
B  :----*---*-------|----------------|----------------|----*---*----*--|
Gb :0-0---0---------|----0---0-------|--------0-*-----|0-0---0---0-0---|
B  :0-0---0---------|----0-*-0-*-----|--------0-------|0-0---0---0-0---|

E  :----------------|----------------|----------------|----------------|
B  :----------------|----------------|----------------|----------------|
Gb :----------------|----------------|----------------|----------------|
B  :0-0-*-0-*-------|----0-*-0-*-----|--------0--*----|0-0-*-0-*-0-0*--|

============================================================================

Db :-------------------------------|-------------------------------|
Ab :-------------------------------|-------------------------------|
E  :-------------------------------|----------------2-2-2-2--------|
B  :5-5-5-5-5-5-5-5-1-1-1-1-4-4-4-4|4-4-4-4-5-5-5-5---------5-5-5-5|
Gb :-------------------------------|-------------------------------|
B  :-------------------------------|-------------------------------|

Db :-------------------------------|-------------------------------|
Ab :-------------------------------|-------------------------------|
E  :-------------------------------|-------------------------------|
B  :-------------------------------|----------------4-4-4-4--------|
Gb :6-6-6-6-6-6-6-6-3-3-3-3-5-5-5-5|5-5-5-5-6-6-6-6---------6-6-6-6|
B  :-------------------------------|-------------------------------|

E  :-------------------------------|-------------------------------|
B  :-------------------------------|----------------4---4----------|
Gb :6---6---6---6---3---3---5---5--|5---5---6---6-----------6---6--|
B  :-------------------------------|-------------------------------|

============================================================================

Db :-------------------------------|-------------------------------|
Ab :-------------------------------|-------------------------------|
E  :2-2-2-2-3-3-3-3---------3-3-3-3|5-5-5-5-7-7-7-7-5-5-5-5-3-3-3-3|
B  :----------------4-4-4-4--------|-------------------------------|
Gb :-------------------------------|-------------------------------|
B  :-------------------------------|-------------------------------|

Db :-------------------------------|-------------------------------|
Ab :-------------------------------|-------------------------------|
E  :-------------------------------|-------------------------------|
B  :4-4-4-4-5-5-5-5---------5-5-5-5|7-7-7-7-8-8-8-8-7-7-7-7-5-5-5-5|
Gb :----------------6-6-6-6--------|-------------------------------|
B  :-------------------------------|-------------------------------|

E  :-------------------------------|-------------------------------|
B  :4---4---5---5-----------5---5--|7---7---8---8---7---7---5---5--|
Gb :----------------6---6----------|-------------------------------|
B  :-------------------------------|-------------------------------|

============================================================================

Db :-------------------------------|-------------------------------|
Ab :-------------------------------|-------------------------------|
E  :-------------------------------|----------------2-2-2-2--------|
B  :5-5-5-5-5-5-5-5-1-1-1-1-4-4-4-4|4-4-4-4-5-5-5-5---------5-5-5-5|
Gb :-------------------------------|-------------------------------|
B  :-------------------------------|-------------------------------|

Db :-------------------------------|-------------------------------|
Ab :-------------------------------|-------------------------------|
E  :-------------------------------|-------------------------------|
B  :-------------------------------|----------------4-4-4-4--------|
Gb :6-6-6-6-6-6-6-6-3-3-3-3-5-5-5-5|5-5-5-5-6-6-6-6---------6-6-6-6|
B  :-------------------------------|-------------------------------|

E  :-------------------------------|-------------------------------|
B  :-------------------------------|----------------4---4----------|
Gb :6---6---6---6---3---3---5---5--|5---5---6---6-----------6---6--|
B  :-------------------------------|-------------------------------|

============================================================================

Db :-------------------------------|-------------------------------|
Ab :-------------------------------|-------------------------------|
E  :-------------------------------|----------------2-2-2-2-2-2-2-2|
B  :----------------4-4-4-4-4-4-4-4|-------------------------------|
Gb :-------------------------------|0-0-0-0-0-0-0-0----------------|
B  :5-5-5-5-5-5-5-5----------------|-------------------------------|

Db :-------------------------------|-------------------------------|
Ab :-------------------------------|-------------------------------|
E  :-------------------------------|-------------------------------|
B  :-------------------------------|----------------4-4-4-4-4-4-4-4|
Gb :----------------5-5-5-5-5-5-5-5|-------------------------------|
B  :1-1-1-1-1-1-1-1----------------|4-4-4-4-4-4-4-4----------------|

E  :-------------------------------|-------------------------------|
B  :-------------------------------|----------------4---4---4---4--|
Gb :----------------5---5---5---5--|-------------------------------|
B  :1---1---1---1------------------|4---4---4---4------------------|

============================================================================

Db :-------------------------------|-------------------------------|
Ab :-------------------------------|-------------------------------|
E  :-------------------------------|----------------2-2-2-2--------|
B  :5-5-5-5-5-5-5-5-1-1-1-1-4-4-4-4|4-4-4-4-5-5-5-5---------5-5-5-5|
Gb :-------------------------------|-------------------------------|
B  :-------------------------------|-------------------------------|

Db :-------------------------------|-------------------------------|
Ab :-------------------------------|-------------------------------|
E  :-------------------------------|-------------------------------|
B  :-------------------------------|----------------4-4-4-4--------|
Gb :6-6-6-6-6-6-6-6-3-3-3-3-5-5-5-5|5-5-5-5-6-6-6-6---------6-6-6-6|
B  :-------------------------------|-------------------------------|

E  :-------------------------------|-------------------------------|
B  :-------------------------------|----------------4---4----------|
Gb :6---6---6---6---3---3---5---5--|5---5---6---6-----------6---6--|
B  :-------------------------------|-------------------------------|

============================================================================

Db :-------------------------------|-------------------------------|
Ab :-------------------------------|-------------------------------|
E  :2-2-2-2-3-3-3-3---------3-3-3-3|5-5-5-5-7-7-7-7-5-5-5-5-3-3-3-3|
B  :----------------4-4-4-4--------|-------------------------------|
Gb :-------------------------------|-------------------------------|
B  :-------------------------------|-------------------------------|

Db :-------------------------------|-------------------------------|
Ab :-------------------------------|-------------------------------|
E  :-------------------------------|-------------------------------|
B  :4-4-4-4-5-5-5-5---------5-5-5-5|7-7-7-7-8-8-8-8-7-7-7-7-5-5-5-5|
Gb :----------------6-6-6-6--------|-------------------------------|
B  :-------------------------------|-------------------------------|

E  :-------------------------------|-------------------------------|
B  :4---4---5---5-----------5---5--|7---7---8---8---7---7---5---5--|
Gb :----------------6---6----------|-------------------------------|
B  :-------------------------------|-------------------------------|

============================================================================

Db :-------------------------------|-------------------------------|
Ab :-------------------------------|-------------------------------|
E  :-------------------------------|----------------2-2-2-2--------|
B  :5-5-5-5-5-5-5-5-1-1-1-1-4-4-4-4|4-4-4-4-5-5-5-5---------5-5-5-5|
Gb :-------------------------------|-------------------------------|
B  :-------------------------------|-------------------------------|

Db :-------------------------------|-------------------------------|
Ab :-------------------------------|-------------------------------|
E  :-------------------------------|-------------------------------|
B  :-------------------------------|----------------4-4-4-4--------|
Gb :6-6-6-6-6-6-6-6-3-3-3-3-5-5-5-5|5-5-5-5-6-6-6-6---------6-6-6-6|
B  :-------------------------------|-------------------------------|

E  :-------------------------------|-------------------------------|
B  :-------------------------------|----------------4---4----------|
Gb :6---6---6---6---3---3---5---5--|5---5---6---6-----------6---6--|
B  :-------------------------------|-------------------------------|

============================================================================

Db :-------------------------------|-------------------------------|
Ab :-------------------------------|-------------------------------|
E  :-------------------------------|----------------2-2-2-2-2-2-2-2|
B  :----------------4-4-4-4-4-4-4-4|-------------------------------|
Gb :-------------------------------|0-0-0-0-0-0-0-0----------------|
B  :5-5-5-5-5-5-5-5----------------|-------------------------------|

Db :-------------------------------|-------------------------------|
Ab :-------------------------------|-------------------------------|
E  :-------------------------------|-------------------------------|
B  :-------------------------------|----------------4-4-4-4-4-4-4-4|
Gb :----------------5-5-5-5-5-5-5-5|-------------------------------|
B  :1-1-1-1-1-1-1-1----------------|4-4-4-4-4-4-4-4----------------|

E  :-------------------------------|-------------------------------|
B  :-------------------------------|----------------4---4---4---4--|
Gb :----------------5---5---5---5--|-------------------------------|
B  :1---1---1---1------------------|4---4---4---4------------------|

============================================================================

Db :----------------|----------------|-------------------------------|
Ab :----------------|----------------|-------------------------------|
E  :----------------|----------------|-------------------------------|
B  :----------------|----------------|5-5-5-5-5-5-5-5-1-1-1-1-4-4-4-4|
Gb :----------------|----------------|-------------------------------|
B  :*---------------|----------------|-------------------------------|

Db :----------------|----------------|-------------------------------|
Ab :----------------|----------------|-------------------------------|
E  :----------------|----------------|-------------------------------|
B  :*---------------|----------------|-------------------------------|
Gb :----------------|----------------|6-6-6-6-6-6-6-6-3-3-3-3-5-5-5-5|
B  :----------------|----------------|-------------------------------|

E  :----------------|----------------|-------------------------------|
B  :*---------------|----------------|-------------------------------|
Gb :----------------|----------------|6---6---6---6---3---3---5---5--|
B  :----------------|----------------|-------------------------------|

============================================================================

Db :-------------------------------|-------------------------------|
Ab :-------------------------------|-------------------------------|
E  :----------------2-2-2-2--------|2-2-2-2-3-3-3-3---------3-3-3-3|
B  :4-4-4-4-5-5-5-5---------5-5-5-5|----------------4-4-4-4--------|
Gb :-------------------------------|-------------------------------|
B  :-------------------------------|-------------------------------|

Db :-------------------------------|-------------------------------|
Ab :-------------------------------|-------------------------------|
E  :-------------------------------|-------------------------------|
B  :----------------4-4-4-4--------|4-4-4-4-5-5-5-5---------5-5-5-5|
Gb :5-5-5-5-6-6-6-6---------6-6-6-6|----------------6-6-6-6--------|
B  :-------------------------------|-------------------------------|

E  :-------------------------------|-------------------------------|
B  :----------------4---4----------|4---4---5---5-----------5---5--|
Gb :5---5---6---6-----------6---6--|----------------6---6----------|
B  :-------------------------------|-------------------------------|

============================================================================

Db :-------------------------------|-------------------------------|
Ab :-------------------------------|-------------------------------|
E  :5-5-5-5-7-7-7-7-5-5-5-5-3-3-3-3|-------------------------------|
B  :-------------------------------|5-5-5-5-5-5-5-5-1-1-1-1-4-4-4-4|
Gb :-------------------------------|-------------------------------|
B  :-------------------------------|-------------------------------|

Db :-------------------------------|-------------------------------|
Ab :-------------------------------|-------------------------------|
E  :-------------------------------|-------------------------------|
B  :7-7-7-7-8-8-8-8-7-7-7-7-5-5-5-5|-------------------------------|
Gb :-------------------------------|6-6-6-6-6-6-6-6-3-3-3-3-5-5-5-5|
B  :-------------------------------|-------------------------------|

E  :-------------------------------|-------------------------------|
B  :7---7---8---8---7---7---5---5--|-------------------------------|
Gb :-------------------------------|6---6---6---6---3---3---5---5--|
B  :-------------------------------|-------------------------------|

============================================================================

Db :-------------------------------|-------------------------------|
Ab :-------------------------------|-------------------------------|
E  :----------------2-2-2-2--------|-------------------------------|
B  :4-4-4-4-5-5-5-5---------5-5-5-5|----------------4-4-4-4-4-4-4-4|
Gb :-------------------------------|-------------------------------|
B  :-------------------------------|5-5-5-5-5-5-5-5----------------|

Db :-------------------------------|-------------------------------|
Ab :-------------------------------|-------------------------------|
E  :-------------------------------|-------------------------------|
B  :----------------4-4-4-4--------|-------------------------------|
Gb :5-5-5-5-6-6-6-6---------6-6-6-6|----------------5-5-5-5-5-5-5-5|
B  :-------------------------------|1-1-1-1-1-1-1-1----------------|

E  :-------------------------------|-------------------------------|
B  :----------------4---4----------|-------------------------------|
Gb :5---5---6---6-----------6---6--|----------------5---5---5---5--|
B  :-------------------------------|1---1---1---1------------------|

============================================================================

Db :-------------------------------|-------------------------------|
Ab :-------------------------------|-------------------------------|
E  :----------------2-2-2-2-2-2-2-2|-------------------------------|
B  :-------------------------------|5-5-5-5-5-5-5-5-1-1-1-1-4-4-4-4|
Gb :0-0-0-0-0-0-0-0----------------|-------------------------------|
B  :-------------------------------|-------------------------------|

Db :-------------------------------|-------------------------------|
Ab :-------------------------------|-------------------------------|
E  :-------------------------------|-------------------------------|
B  :----------------4-4-4-4-4-4-4-4|-------------------------------|
Gb :-------------------------------|6-6-6-6-6-6-6-6-3-3-3-3-5-5-5-5|
B  :4-4-4-4-4-4-4-4----------------|-------------------------------|

E  :-------------------------------|-------------------------------|
B  :----------------4---4---4---4--|-------------------------------|
Gb :-------------------------------|6---6---6---6---3---3---5---5--|
B  :4---4---4---4------------------|-------------------------------|

============================================================================

Db :-------------------------------|-------------------------------|
Ab :-------------------------------|-------------------------------|
E  :----------------2-2-2-2--------|2-2-2-2-3-3-3-3---------3-3-3-3|
B  :4-4-4-4-5-5-5-5---------5-5-5-5|----------------4-4-4-4--------|
Gb :-------------------------------|-------------------------------|
B  :-------------------------------|-------------------------------|

Db :-------------------------------|-------------------------------|
Ab :-------------------------------|-------------------------------|
E  :-------------------------------|-------------------------------|
B  :----------------4-4-4-4--------|4-4-4-4-5-5-5-5---------5-5-5-5|
Gb :5-5-5-5-6-6-6-6---------6-6-6-6|----------------6-6-6-6--------|
B  :-------------------------------|-------------------------------|

E  :-------------------------------|-------------------------------|
B  :----------------4---4----------|4---4---5---5-----------5---5--|
Gb :5---5---6---6-----------6---6--|----------------6---6----------|
B  :-------------------------------|-------------------------------|

============================================================================

Db :-------------------------------|-------------------------------|
Ab :-------------------------------|-------------------------------|
E  :5-5-5-5-7-7-7-7-5-5-5-5-3-3-3-3|-------------------------------|
B  :-------------------------------|5-5-5-5-5-5-5-5-1-1-1-1-4-4-4-4|
Gb :-------------------------------|-------------------------------|
B  :-------------------------------|-------------------------------|

Db :-------------------------------|-------------------------------|
Ab :-------------------------------|-------------------------------|
E  :-------------------------------|-------------------------------|
B  :7-7-7-7-8-8-8-8-7-7-7-7-5-5-5-5|-------------------------------|
Gb :-------------------------------|6-6-6-6-6-6-6-6-3-3-3-3-5-5-5-5|
B  :-------------------------------|-------------------------------|

E  :-------------------------------|-------------------------------|
B  :7---7---8---8---7---7---5---5--|-------------------------------|
Gb :-------------------------------|6---6---6---6---3---3---5---5--|
B  :-------------------------------|-------------------------------|

============================================================================

Db :-------------------------------|-------------------------------|
Ab :-------------------------------|-------------------------------|
E  :----------------2-2-2-2--------|-------------------------------|
B  :4-4-4-4-5-5-5-5---------5-5-5-5|----------------4-4-4-4-4-4-4-4|
Gb :-------------------------------|-------------------------------|
B  :-------------------------------|5-5-5-5-5-5-5-5----------------|

Db :-------------------------------|-------------------------------|
Ab :-------------------------------|-------------------------------|
E  :-------------------------------|-------------------------------|
B  :----------------4-4-4-4--------|-------------------------------|
Gb :5-5-5-5-6-6-6-6---------6-6-6-6|----------------5-5-5-5-5-5-5-5|
B  :-------------------------------|1-1-1-1-1-1-1-1----------------|

E  :-------------------------------|-------------------------------|
B  :----------------4---4----------|-------------------------------|
Gb :5---5---6---6-----------6---6--|----------------5---5---5---5--|
B  :-------------------------------|1---1---1---1------------------|

============================================================================

Db :-------------------------------|----------------|----------------|
Ab :-------------------------------|----------------|----------------|
E  :----------------2-2-2-2-2-2-2-2|*---------------|----------------|
B  :-------------------------------|----------------|----------------|
Gb :0-0-0-0-0-0-0-0----------------|----------------|----------------|
B  :-------------------------------|----------------|----------------|

Db :-------------------------------|----------------|----------------|
Ab :-------------------------------|----------------|----------------|
E  :-------------------------------|----------------|----------------|
B  :----------------4-4-4-4-4-4-4-4|*---------------|----------------|
Gb :-------------------------------|----------------|----------------|
B  :4-4-4-4-4-4-4-4----------------|----------------|----------------|

E  :-------------------------------|----------------|----------------|
B  :----------------4---4---4---4--|----------------|----------------|
Gb :-------------------------------|----------------|----------------|
B  :4---4---4---4------------------|1---0---1---4---|0---1---0---1---|

============================================================================

Db :----------------|| ----------------|----------------|----------------|
Ab :----------------|| ----------------|----------------|----------------|
E  :----------------||*----------------|----------------|----------------|
B  :----------------||*1---0---1---4---|0---1---0---1---|4---0---1---0---|
Gb :----------------|| 1---0---1---4---|0---1---0---1---|4---0---1---0---|
B  :----------------|| 1---0---1---4---|0---1---0---1---|4---0---1---0---|

Db :----------------|| ----------------|----------------|----------------|
Ab :----------------|| ----------------|----------------|----------------|
E  :----------------||*----------------|----------------|----------------|
B  :----------------||*1---0---1---4---|0---1---0---1---|4---0---1---0---|
Gb :----------------|| 1---0---1---4---|0---1---0---1---|4---0---1---0---|
B  :----------------|| 1---0---1---4---|0---1---0---1---|4---0---1---0---|

E  :----------------|| ----------------|----------------|----------------|
B  :----------------||*----------------|----------------|----------------|
Gb :----------------||*----------------|----------------|----------------|
B  :4---0---1---0---|| 1---0---1---4---|0---1---0---1---|4---0---1---0---|

============================================================================

Db :----------------|----------------|---------------- 1|----------------|
Ab :----------------|----------------|---------------- ||----------------|
E  :----------------|----------------|----------------*||----------------|
B  :1---0---1---4---|0---1---0---1---|4---0---1---0---*||1---0---1---4---|
Gb :1---0---1---4---|0---1---0---1---|4---0---1---0--- ||1---0---1---4---|
B  :1---0---1---4---|0---1---0---1---|4---0---1---0--- ||1---0---1---4---|

Db :----------------|----------------|---------------- 1|----------------|
Ab :----------------|----------------|---------------- ||----------------|
E  :----------------|----------------|----------------*||----------------|
B  :1---0---1---4---|0---1---0---1---|4---0---1---0---*||1-----------4---|
Gb :1---0---1---4---|0---1---0---1---|4---0---1---0--- ||1-----------4---|
B  :1---0---1---4---|0---1---0---1---|4---0---1---0--- ||1---*-------4---|

E  :----------------|----------------|---------------- 1|----------------|
B  :----------------|----------------|----------------*||----------------|
Gb :----------------|----------------|----------------*||----------------|
B  :1---0---1---4---|0---1---0---1---|4---0---1---0--- ||1---*-------4---|

============================================================================

Db :----------------|----------------|
Ab :----------------|----------------|
E  :----------------|----------------|
B  :0---1---0---1---|4---0---0-------|
Gb :0---1---0---1---|4---0---0-------|
B  :0---1---0---1---|4---0---0-------|

Db :----------------|----------------|
Ab :----------------|----------------|
E  :----------------|----------------|
B  :*---1---*-------|4-------0-------|
Gb :----1-----------|4-------0-------|
B  :----1-----------|4---*---0-------|

E  :----------------|----------------|
B  :----------------|----------------|
Gb :----------------|----------------|
B  :*---1---*-------|4---*---0-------|
comments
We did not receive enough feedback on this tab! Please rate:
1 2 3 4 5
I want to post or [tab]
guest
You may want to rate the tab now too:
select rating
Please do not post tabs as comments. Select "correction" instead!