Oops, an error
Loading. Please wait.

In Reference To A Sinking Ship - Dreameater Tab

141 views 1 this week
no commentswrite comment
1 2 3 4 5
please rate
add to favorites launch autoscroll
font size
0
reset
Autoscroll
+/-
esc
set tempo
stop
Contributor
Difficulty
Tuning
intermediate
B F# B E G# C#
WARNING: You are trying to view
                                    content from Ultimate-Guitar.com
                                    in an unauthorized application,
                                    which is prohibited.

                                    Please use an official Ultimate
                                    Guitar Tabs application for iPhone,
                                    iPad or Android to access legitimate
                                    chords, guitar, bass, and drum tabs
                                    from Ultimate-Guitar.com database.

                                    Type "ultimate guitar tabs" in Apple
                                    App Store's or Android Market's
                                    search to find the application.
Dreameater by In Reference to a Sinking Ship
Line 1 - Right Guitar
Line 2 - Left Guitar
Line 3 - Bass
Line 4 - Center Guitar

Db :----------------|----------------|----------------|----------------|
Ab :----------------|----------------|----------------|----------------|
E  :----------------|----------------|----------------|----------------|
B  :----------------|----------------|----------------|----------------|
Gb :----------------|----5-8---8-7---|----------------|----5-8---8-7---|
B  :----------------|0-0-----0-----0-|8-7-0-5-4-0-5-7-|0-0-----0-----0-|

Db :----------------|----------------|----------------|----------------|
Ab :----------------|----------------|----------------|----------------|
E  :----------------|----------------|----------------|----------------|
B  :----------------|----------------|----------------|----------------|
Gb :----------------|----5-8---8-7---|----------------|----5-8---8-7---|
B  :----------------|0-0-----0-----0-|8-7-0-5-4-0-5-7-|0-0-----0-----0-|

E  :----------------|----------------|----------------|----------------|
B  :----------------|----------------|----------------|----------------|
Gb :----------------|----5-8---8-7---|----------------|----5-8---8-7---|
B  :----------------|0-0-----0-----0-|8-7-0-5-4-0-5-7-|0-0-----0-----0-|

Db :----------------|----------------|----------------|----------------|
Ab :----------------|----------------|----------------|----------------|
E  :----------------|----------------|----------------|----------------|
B  :----------------|----------------|----------------|----------------|
Gb :----------------|----------------|----------------|----------------|
B  :----------------|----------------|----------------|----------------|

============================================================================

Db :----------------|----------------|----------------|----------------|
Ab :----------------|----------------|----------------|----------------|
E  :----------------|----------------|----------------|----------------|
B  :----------------|----------------|----------------|----------------|
Gb :----------------|----5-8---8-7---|----------------|----5-8---8-7---|
B  :8-7-0-5-4-0-5-7-|0-0-----0-----0-|8-7-0-5-4-0-5-7-|0-0-----0-----0-|

Db :----------------|----------------|----------------|----------------|
Ab :----------------|----------------|----------------|----------------|
E  :----------------|----------------|----------------|----------------|
B  :----------------|----------------|----------------|----------------|
Gb :----------------|----5-8---8-7---|----------------|----5-8---8-7---|
B  :8-7-0-5-4-0-5-7-|0-0-----0-----0-|8-7-0-5-4-0-5-7-|0-0-----0-----0-|

E  :----------------|----------------|----------------|----------------|
B  :----------------|----------------|----------------|----------------|
Gb :----------------|----5-8---8-7---|----------------|----5-8---8-7---|
B  :8-7-0-5-4-0-5-7-|0-0-----0-----0-|8-7-0-5-4-0-5-7-|0-0-----0-----0-|

Db :----------------|----------------|----------------|----------------|
Ab :----------------|----------------|----------------|----------------|
E  :----------------|----------------|----------------|----------------|
B  :----------------|----------------|----------------|----------------|
Gb :----------------|----------------|----------------|----------------|
B  :----------------|----------------|----------------|----------------|

============================================================================

Db :----------------|----------------|----------------|----------------|
Ab :----------------|----------------|----------------|----------------|
E  :----------------|----------------|----------------|----------------|
B  :----------------|----------------|----------------|----------------|
Gb :----------------|----5-8---8-7---|----------------|----1-4---4-3---|
B  :8-7-0-5-4-0-5-7-|0-0-----0-----0-|8-7-0-5-4-0-5-7-|0-0-----0-----0-|

Db :----------------|----------------|----------------|----------------|
Ab :----------------|----------------|----------------|----------------|
E  :----------------|----------------|----------------|----------------|
B  :----------------|----------------|----------------|----------------|
Gb :----------------|----5-8---8-7---|----------------|----1-4---4-3---|
B  :8-7-0-5-4-0-5-7-|0-0-----0-----0-|8-7-0-5-4-0-5-7-|0-0-----0-----0-|

E  :----------------|----------------|----------------|----------------|
B  :----------------|----------------|----------------|----------------|
Gb :----------------|----5-8---8-7---|----------------|----1-4---4-3---|
B  :8-7-0-5-4-0-5-7-|0-0-----0-----0-|8-7-0-5-4-0-5-7-|0-0-----0-----0-|

Db :----------------|----------------|----------------|----------------|
Ab :----------------|----------------|----------------|----------------|
E  :----------------|----------------|----------------|----------------|
B  :----------------|----------------|----------------|----------------|
Gb :----------------|----------------|----------------|----------------|
B  :----------------|----------------|----------------|----------------|

============================================================================

Db :----------------|----------------|----------------|----------------|
Ab :----------------|----------------|----------------|----------------|
E  :----------------|----------------|----------------|----------------|
B  :----------------|----------------|----------------|----------------|
Gb :----------------|----1-4---4-3---|----------------|----1-4---4-3---|
B  :4-3-0-1-0-0-1-3-|0-0-----0-----0-|4-3-0-1-0-0-1-3-|0-0-----0-----0-|

Db :----------------|----------------|----------------|----------------|
Ab :----------------|----------------|----------------|----------------|
E  :----------------|----------------|----------------|----------------|
B  :----------------|----------------|----------------|----------------|
Gb :----------------|----1-4---4-3---|----------------|----1-4---4-3---|
B  :4-3-0-1-0-0-1-3-|0-0-----0-----0-|4-3-0-1-0-0-1-3-|0-0-----0-----0-|

E  :----------------|----------------|----------------|----------------|
B  :----------------|----------------|----------------|----------------|
Gb :----------------|----1-4---4-3---|----------------|----1-4---4-3---|
B  :4-3-0-1-0-0-1-3-|0-0-----0-----0-|4-3-0-1-0-0-1-3-|0-0-----0-----0-|

Db :----------------|----------------|----------------|----------------|
Ab :----------------|----------------|----------------|----------------|
E  :----------------|----------------|----------------|----------------|
B  :----------------|----------------|----------------|----------------|
Gb :----------------|----------------|----------------|----------------|
B  :----------------|----------------|----------------|----------------|

============================================================================

Db :----------------|----------------|----------------|----------------|
Ab :----------------|----------------|----------------|----------------|
E  :----------------|----------------|----------------|----------------|
B  :----------------|----------------|----------------|0---------------|
Gb :----------------|----1-4---4-3---|----------------|0---------------|
B  :4-3-0-1-0-0-1-3-|0-0-----0-----0-|4-3-0-1-0-0-1-3-|0---------------|

Db :----------------|----------------|----------------|----------------|
Ab :----------------|----------------|----------------|----------------|
E  :----------------|----------------|----------------|----------------|
B  :----------------|----------------|----------------|----------------|
Gb :----------------|----1-4---4-3---|----------------|----1-4---4-3---|
B  :4-3-0-1-0-0-1-3-|0-0-----0-----0-|4-3-0-1-0-0-1-3-|0-0-----0-----0-|

E  :----------------|----------------|----------------|----------------|
B  :----------------|----------------|----------------|----------------|
Gb :----------------|----1-4---4-3---|----------------|----------------|
B  :4-3-0-1-0-0-1-3-|0-0-----0-----0-|4-3-0-1-0-0-1-3-|0---------------|

Db :----------------|----------------|----------------|----------------|
Ab :----------------|----------------|----------------|----------------|
E  :----------------|----------------|----------------|----------------|
B  :----------------|----------------|----------------|----------------|
Gb :----------------|----------------|----------------|----------------|
B  :----------------|----------------|----------------|----------------|

============================================================================

Db :----------------|----------------|----------------|------------------|
Ab :----------------|----------------|----------------|------------------|
E  :----------------|----------------|----------------|------------------|
B  :----------------|----------------|----------------|4-5-4-------------|
Gb :----------------|----------------|----------------|--------6---5-*---|
B  :----------------|----------------|----------------|------0---0-------|

Db :----------------|----------------|----------------|------------------|
Ab :----------------|----------------|----------------|------------------|
E  :----------------|----------------|----------------|------------------|
B  :----------------|----------------|----------------|----*-------------|
Gb :----------------|----1-4---4-3---|----------------|------------------|
B  :4-3-0-1-0-0-1-3-|0-0-----0-----0-|4-3-0-1-0-0-1-3-|0-----------------|

E  :----------------|----------------|----------------|------------------|
B  :----------------|----------------|----------------|------------------|
Gb :----------------|----------------|----------------|------------------|
B  :----------------|----------------|----------------|*-----------------|

Db :----------------|----------------|----------------|------------------|
Ab :----------------|----------------|----------------|------------------|
E  :----------------|----------------|----------------|------------------|
B  :----------------|----------------|----------------|------------------|
Gb :----------------|----------------|----------------|------------------|
B  :----------------|----------------|----------------|------------------|

============================================================================

Db :------------------------|-----------------------|
Ab :------------------------|-----------------------|
E  :------------------------|-----------------------|
B  :7-8-7-------------------|----4-5-4--------------|
Gb :--------10---9---9-10---|6------------6---5-----|
B  :------0----0---0------0-|--0-------0----0---0-0-|

Db :------------------------|-----------------------|
Ab :------------------------|-----------------------|
E  :6-7-6-------------------|-----------------------|
B  :---------8---7---7--8---|----7-8-7--------------|
Gb :------------------------|9-----------10---9-----|
B  :------0----0---0------0-|--0-------0----0---0-0-|

E  :------------------------|-----------------------|
B  :7-8-7-------------------|----4-5-4--------------|
Gb :--------10---9---9-10---|6------------6---5-----|
B  :------0----0---0------0-|--0-------0----0---0-0-|

Db :------------------------|-----------------------|
Ab :------------------------|-----------------------|
E  :------------------------|-----------------------|
B  :------------------------|-----------------------|
Gb :------------------------|-----------------------|
B  :------------------------|-----------------------|

============================================================================

Db :------------------------|-----------------------|
Ab :------------------------|-----------------------|
E  :------------------------|-----------------------|
B  :7-8-7-------------------|----4-5-4--------------|
Gb :--------10---9---9-10---|6------------6---5-----|
B  :------0----0---0------0-|--0-------0----0---0-0-|

Db :------------------------|-----------------------|
Ab :------------------------|-----------------------|
E  :6-7-6-------------------|-----------------------|
B  :---------8---7---7--8---|----7-8-7--------------|
Gb :------------------------|9-----------10---9-----|
B  :------0----0---0------0-|--0-------0----0---0-0-|

E  :------------------------|-----------------------|
B  :7-8-7-------------------|----4-5-4--------------|
Gb :--------10---9---9-10---|6------------6---5-----|
B  :------0----0---0------0-|--0-------0----0---0-0-|

Db :------------------------|-----------------------|
Ab :------------------------|-----------------------|
E  :------------------------|-----------------------|
B  :------------------------|-----------------------|
Gb :------------------------|-----------------------|
B  :------------------------|-----------------------|

============================================================================

Db :------------------------|-----------------------|
Ab :------------------------|-----------------------|
E  :------------------------|-----------------------|
B  :7-8-7-------------------|----4-5-4--------------|
Gb :--------10---9---9-10---|6------------6---5-----|
B  :------0----0---0------0-|--0-------0----0---0-0-|

Db :------------------------|-----------------------|
Ab :------------------------|-----------------------|
E  :6-7-6-------------------|-----------------------|
B  :---------8---7---7--8---|----7-8-7--------------|
Gb :------------------------|9-----------10---9-----|
B  :------0----0---0------0-|--0-------0----0---0-0-|

E  :------------------------|-----------------------|
B  :7-8-7-------------------|----4-5-4--------------|
Gb :--------10---9---9-10---|6------------6---5-----|
B  :------0----0---0------0-|--0-------0----0---0-0-|

Db :------------------------|-----------------------|
Ab :------------------------|-----------------------|
E  :------------------------|-----------------------|
B  :------------------------|-----------------------|
Gb :------------------------|-----------------------|
B  :------------------------|-----------------------|

============================================================================

Db :------------------------|-----------------------|
Ab :------------------------|-----------------------|
E  :------------------------|-----------------------|
B  :7-8-7-------------------|----4-5-4--------------|
Gb :--------10---9---9-10---|6------------6---5-----|
B  :------0----0---0------0-|--0-------0----0---0-0-|

Db :------------------------|-----------------------|
Ab :------------------------|-----------------------|
E  :6-7-6-------------------|-----------------------|
B  :---------8---7---7--8---|----7-8-7--------------|
Gb :------------------------|9-----------10---9-----|
B  :------0----0---0------0-|--0-------0----0---0-0-|

E  :------------------------|-----------------------|
B  :7-8-7-------------------|----4-5-4--------------|
Gb :--------10---9---9-10---|6------------6---5-----|
B  :------0----0---0------0-|--0-------0----0---0-0-|

Db :------------------------|-----------------------|
Ab :------------------------|-----------------------|
E  :------------------------|-----------------------|
B  :------------------------|-----------------------|
Gb :------------------------|-----------------------|
B  :------------------------|-----------------------|

============================================================================

Db :------------------------|-----------------------|
Ab :------------------------|-----------------------|
E  :------------------------|-----------------------|
B  :7-8-7-------------------|----4-5-4--------------|
Gb :--------10---9---9-10---|6------------6---5-----|
B  :------0----0---0------0-|--0-------0----0---0-0-|

Db :------------------------|-----------------------|
Ab :------------------------|-----------------------|
E  :6-7-6-------------------|-----------------------|
B  :---------8---7---7--8---|----7-8-7--------------|
Gb :------------------------|9-----------10---9-----|
B  :------0----0---0------0-|--0-------0----0---0-0-|

E  :------------------------|-----------------------|
B  :7-8-7-------------------|----4-5-4--------------|
Gb :--------10---9---9-10---|6------------6---5-----|
B  :------0----0---0------0-|--0-------0----0---0-0-|

Db :------------------------|-----------------------|
Ab :------------------------|-----------------------|
E  :------------------------|-----------------------|
B  :------------------------|-----------------------|
Gb :------------------------|-----------------------|
B  :------------------------|-----------------------|

============================================================================

Db :------------------------|-----------------------|
Ab :------------------------|-----------------------|
E  :------------------------|-----------------------|
B  :7-8-7-------------------|----4-5-4--------------|
Gb :--------10---9---9-10---|6------------6---5-----|
B  :------0----0---0------0-|--0-------0----0---0-0-|

Db :------------------------|-----------------------|
Ab :------------------------|-----------------------|
E  :6-7-6-------------------|-----------------------|
B  :---------8---7---7--8---|----7-8-7--------------|
Gb :------------------------|9-----------10---9-----|
B  :------0----0---0------0-|--0-------0----0---0-0-|

E  :------------------------|-----------------------|
B  :7-8-7-------------------|----4-5-4--------------|
Gb :--------10---9---9-10---|6------------6---5-----|
B  :------0----0---0------0-|--0-------0----0---0-0-|

Db :------------------------|-----------------------|
Ab :------------------------|-----------------------|
E  :------------------------|-----------------------|
B  :------------------------|-----------------------|
Gb :------------------------|-----------------------|
B  :------------------------|-----------------------|

============================================================================

Db :------------------------|-----------------------|
Ab :------------------------|-----------------------|
E  :------------------------|-----------------------|
B  :7-8-7-------------------|----4-5-4--------------|
Gb :--------10---9---9-10---|6------------6---5-----|
B  :------0----0---0------0-|--0-------0----0---0-0-|

Db :------------------------|-----------------------|
Ab :------------------------|-----------------------|
E  :6-7-6-------------------|-----------------------|
B  :---------8---7---7--8---|----7-8-7--------------|
Gb :------------------------|9-----------10---9-----|
B  :------0----0---0------0-|--0-------0----0---0-0-|

E  :------------------------|-----------------------|
B  :7-8-7-------------------|----4-5-4--------------|
Gb :--------10---9---9-10---|6------------6---5-----|
B  :------0----0---0------0-|--0-------0----0---0-0-|

Db :------------------------|-----------------------|
Ab :------------------------|-----------------------|
E  :------------------------|-----------------------|
B  :------------------------|-----------------------|
Gb :------------------------|-----------------------|
B  :------------------------|-----------------------|

============================================================================

Db :------------------------|----|----------------------------|
Ab :------------------------|----|----------------------------|
E  :------------------------|----|----------------------------|
B  :7-8-7-------------------|----|5-4-5-4-5-4-5-4-5-4-5-4-5*--|
Gb :--------10---9---9-10---|6---|----------------------------|
B  :------0----0---0------0-|--0-|----------------------------|

Db :------------------------|----|----------------------------|
Ab :------------------------|----|----------------------------|
E  :6-7-6-------------------|----|----------------------------|
B  :---------8---7---7--8---|----|----------------------------|
Gb :------------------------|9---|----------------------------|
B  :------0----0---0------0-|--0-|5-4-5-4-5-4-5-4-5-4-5-4-5*--|

E  :------------------------|----|----------------------------|
B  :7-8-7-------------------|----|----------------------------|
Gb :--------10---9---9-10---|6---|----------------------------|
B  :------0----0---0------0-|--0-|5------------------------*--|

Db :------------------------|----|----------------------------|
Ab :------------------------|----|6---------------------------|
E  :------------------------|----|----------------------------|
B  :------------------------|----|----------------------------|
Gb :------------------------|----|----------------------------|
B  :------------------------|----|----------------------------|

============================================================================

Db :-------------------------------|-------------------------------|
Ab :-------------------------------|-------------------------------|
E  :-------------------------------|-------------------------------|
B  :-------------------------------|-------------------------------|
Gb :4-5-5-5-*---5-5-5-4-*---4-5-5-5|4-5-5-5-*---5-5-5-4-*---4-5-*--|
B  :4-5-5-5-----5-5-5-4-----4-5-5-5|4-5-5-5-----5-5-5-4-----4-5----|

Db :-------------------------------|-------------------------------|
Ab :-------------------------------|-------------------------------|
E  :-------------------------------|-------------------------------|
B  :-------------------------------|-------------------------------|
Gb :4-5-5-5-*---5-5-5-4-*---4-5-5-5|4-5-5-5-*---5-5-5-4-*---4-5-*--|
B  :4-5-5-5-----5-5-5-4-----4-5-5-5|4-5-5-5-----5-5-5-4-----4-5----|

E  :-------------------------------|-------------------------------|
B  :-------------------------------|-------------------------------|
Gb :--------*-----------*----------|--------*-----------*-------*--|
B  :4-5-5-5-----5-5-5-4-----4-5-5-5|4-5-5-5-----5-5-5-4-----4-5----|

Db :-------------------------------|-------------------------------|
Ab :-------------------------------|-------------------------------|
E  :-------------------------------|-------------------------------|
B  :5-4-5-4-5-4-5-4-8-5-8-5-7-5-7-5|5-4-5-4-5-4-5-4-8-5-8-5-7-5-7-5|
Gb :-------------------------------|-------------------------------|
B  :-------------------------------|-------------------------------|

============================================================================

Db :-------------------------------|-------------------------------|
Ab :-------------------------------|-------------------------------|
E  :-------------------------------|-------------------------------|
B  :-------------------------------|-------------------------------|
Gb :4-5-5-5-*---5-5-5-4-*---4-5-5-5|4-5-5-5-*---5-5-5-4-*---4-5-*--|
B  :4-5-5-5-----5-5-5-4-----4-5-5-5|4-5-5-5-----5-5-5-4-----4-5----|

Db :-------------------------------|-------------------------------|
Ab :-------------------------------|-------------------------------|
E  :-------------------------------|-------------------------------|
B  :-------------------------------|-------------------------------|
Gb :4-5-5-5-*---5-5-5-4-*---4-5-5-5|4-5-5-5-*---5-5-5-4-*---4-5-*--|
B  :4-5-5-5-----5-5-5-4-----4-5-5-5|4-5-5-5-----5-5-5-4-----4-5----|

E  :-------------------------------|-------------------------------|
B  :-------------------------------|-------------------------------|
Gb :--------*-----------*----------|--------*-----------*-------*--|
B  :4-5-5-5-----5-5-5-4-----4-5-5-5|4-5-5-5-----5-5-5-4-----4-5----|

Db :-------------------------------|-------------------------------|
Ab :-------------------------------|-------------------------------|
E  :-------------------------------|-------------------------------|
B  :5-4-5-4-5-4-5-4-8-5-8-5-7-5-7-5|5-4-5-4-5-4-5-4-8-5-8-5-7-5-7-5|
Gb :-------------------------------|-------------------------------|
B  :-------------------------------|-------------------------------|

============================================================================

Db :-------------------------------|-------------------------------|
Ab :-------------------------------|-------------------------------|
E  :-------------------------------|-------------------------------|
B  :-------------------------------|-------------------------------|
Gb :4-5-5-5-*---5-5-5-4-*---4-5-5-5|4-5-5-5-*---5-5-5-4-*---4-5-*--|
B  :4-5-5-5-----5-5-5-4-----4-5-5-5|4-5-5-5-----5-5-5-4-----4-5----|

Db :-------------------------------|-------------------------------|
Ab :-------------------------------|-------------------------------|
E  :-------------------------------|-------------------------------|
B  :-------------------------------|-------------------------------|
Gb :4-5-5-5-*---5-5-5-4-*---4-5-5-5|4-5-5-5-*---5-5-5-4-*---4-5-*--|
B  :4-5-5-5-----5-5-5-4-----4-5-5-5|4-5-5-5-----5-5-5-4-----4-5----|

E  :-------------------------------|-------------------------------|
B  :-------------------------------|-------------------------------|
Gb :--------*-----------*----------|--------*-----------*-------*--|
B  :4-5-5-5-----5-5-5-4-----4-5-5-5|4-5-5-5-----5-5-5-4-----4-5----|

Db :-------------------------------|-------------------------------|
Ab :-------------------------------|-------------------------------|
E  :-------------------------------|-------------------------------|
B  :5-4-5-4-5-4-5-4-8-5-8-5-7-5-7-5|5-4-5-4-5-4-5-4-8-5-8-5-7-5-7-5|
Gb :-------------------------------|-------------------------------|
B  :-------------------------------|-------------------------------|

============================================================================

Db :-------------------------------|-------------------------------|
Ab :-------------------------------|-------------------------------|
E  :-------------------------------|-------------------------------|
B  :-------------------------------|-------------------------------|
Gb :4-5-5-5-*---5-5-5-4-*---4-5-5-5|4-5-5-5-*---5-5-5-4-*---4-5-*--|
B  :4-5-5-5-----5-5-5-4-----4-5-5-5|4-5-5-5-----5-5-5-4-----4-5----|

Db :-------------------------------|-------------------------------|
Ab :-------------------------------|-------------------------------|
E  :-------------------------------|-------------------------------|
B  :-------------------------------|-------------------------------|
Gb :4-5-5-5-*---5-5-5-4-*---4-5-5-5|4-5-5-5-*---5-5-5-4-*---4-5-*--|
B  :4-5-5-5-----5-5-5-4-----4-5-5-5|4-5-5-5-----5-5-5-4-----4-5----|

E  :-------------------------------|-------------------------------|
B  :-------------------------------|-------------------------------|
Gb :--------*-----------*----------|--------*-----------*-------*--|
B  :4-5-5-5-----5-5-5-4-----4-5-5-5|4-5-5-5-----5-5-5-4-----4-5----|

Db :-------------------------------|-------------------------------|
Ab :-------------------------------|-------------------------------|
E  :-------------------------------|-------------------------------|
B  :5-4-5-4-5-4-5-4-8-5-8-5-7-5-7-5|5-4-5-4-5-4-5-4-8-5-8-5-7-5-7-5|
Gb :-------------------------------|-------------------------------|
B  :-------------------------------|-------------------------------|

============================================================================

Db :-------------------------|-----------------------|
Ab :-------------------------|-----------------------|
E  :-------------------------|-----------------------|
B  :0-0-0-0--0-0-0-0--0-0-0-0|0-0-0-0--0-0-0-0--0-0--|
Gb :0-0-0-0*-0-0-0-0*-0-0-0-0|0-0-0-0*-0-0-0-0*-0-0*-|
B  :0-0-0-0--0-0-0-0--0-0-0-0|0-0-0-0--0-0-0-0--0-0--|

Db :-------------------------|-----------------------|
Ab :-------------------------|-----------------------|
E  :-------------------------|-----------------------|
B  :0-0-0-0--0-0-0-0--0-0-0-0|0-0-0-0--0-0-0-0--0-0--|
Gb :0-0-0-0*-0-0-0-0*-0-0-0-0|0-0-0-0*-0-0-0-0*-0-0*-|
B  :0-0-0-0--0-0-0-0--0-0-0-0|0-0-0-0--0-0-0-0--0-0--|

E  :-------------------------|-----------------------|
B  :-------------------------|-----------------------|
Gb :-------*--------*--------|-------*--------*----*-|
B  :0-0-0-0--0-0-0-0--0-0-0-0|0-0-0-0--0-0-0-0--0-0--|

Db :-------------------------|-----------------------|
Ab :-------------------------|-----------------------|
E  :-------------------------|-----------------------|
B  :*------------------------|-----------------------|
Gb :-------------------------|-----------------------|
B  :-------------------------|-----------------------|

============================================================================

Db :-------------------------|----------------------|
Ab :-------------------------|----------------------|
E  :-------------------------|----------------------|
B  :0-0-0-0--0-0-0-0--0-0-0-0|0-0-0-0--0-0-0-0------|
Gb :0-0-0-0*-0-0-0-0*-0-0-0-0|0-0-0-0*-0-0-0-0*-----|
B  :0-0-0-0--0-0-0-0--0-0-0-0|0-0-0-0--0-0-0-0------|

Db :-------------------------|----------------------|
Ab :-------------------------|----------------------|
E  :-------------------------|----------------------|
B  :0-0-0-0--0-0-0-0--0-0-0-0|0-0-0-0--0-0-0-0------|
Gb :0-0-0-0*-0-0-0-0*-0-0-0-0|0-0-0-0*-0-0-0-0*-----|
B  :0-0-0-0--0-0-0-0--0-0-0-0|0-0-0-0--0-0-0-0------|

E  :-------------------------|----------------------|
B  :-------------------------|----------------------|
Gb :-------*--------*--------|-------*--------*-----|
B  :0-0-0-0--0-0-0-0--0-0-0-0|0-0-0-0--0-0-0-0------|

Db :-------------------------|----------------------|
Ab :-------------------------|----------------------|
E  :-------------------------|----------------------|
B  :-------------------------|----------------------|
Gb :-------------------------|----------------------|
B  :-------------------------|----------------------|

============================================================================

Db :-------------------------------|-------------------------------|
Ab :-------------------------------|-------------------------------|
E  :-------------------------------|-------------------------------|
B  :0-0-0-0-----0-0-0-0-----0-0-0-0|0-0-0-0-----0-0-0-0-----0-0----|
Gb :0-0-0-0-*---0-0-0-0-*---0-0-0-0|0-0-0-0-*---0-0-0-0-*---0-0-*--|
B  :0-0-0-0-----0-0-0-0-----0-0-0-0|0-0-0-0-----0-0-0-0-----0-0----|

Db :-------------------------------|-------------------------------|
Ab :-------------------------------|-------------------------------|
E  :-------------------------------|-------------------------------|
B  :0-0-0-0-----0-0-0-0-----0-0-0-0|0-0-0-0-----0-0-0-0-----0-0----|
Gb :0-0-0-0-*---0-0-0-0-*---0-0-0-0|0-0-0-0-*---0-0-0-0-*---0-0-*--|
B  :0-0-0-0-----0-0-0-0-----0-0-0-0|0-0-0-0-----0-0-0-0-----0-0----|

E  :-------------------------------|-------------------------------|
B  :-------------------------------|-------------------------------|
Gb :--------*-----------*----------|--------*-----------*-------*--|
B  :0-0-0-0-----0-0-0-0-----0-0-0-0|0-0-0-0-----0-0-0-0-----0-0----|

Db :-------------------------------|-------------------------------|
Ab :-------------------------------|-------------------------------|
E  :-------------------------------|-------------------------------|
B  :-------------------------------|-------------------------------|
Gb :-------------------------------|-------------------------------|
B  :5-4-5-4-5-4-5-4-8-5-8-5-7-5-7-5|5-4-5-4-5-4-5-4-8-5-8-5-7-5-7-5|

============================================================================

Db :-------------------------------|-------------------------------|
Ab :-------------------------------|-------------------------------|
E  :-------------------------------|-------------------------------|
B  :0-0-0-0-----0-0-0-0-----0-0-0-0|0-0-0-0-----0-0-0-0-----0-0----|
Gb :0-0-0-0-*---0-0-0-0-*---0-0-0-0|0-0-0-0-*---0-0-0-0-*---0-0-*--|
B  :0-0-0-0-----0-0-0-0-----0-0-0-0|0-0-0-0-----0-0-0-0-----0-0----|

Db :-------------------------------|-------------------------------|
Ab :-------------------------------|-------------------------------|
E  :-------------------------------|-------------------------------|
B  :0-0-0-0-----0-0-0-0-----0-0-0-0|0-0-0-0-----0-0-0-0-----0-0----|
Gb :0-0-0-0-*---0-0-0-0-*---0-0-0-0|0-0-0-0-*---0-0-0-0-*---0-0-*--|
B  :0-0-0-0-----0-0-0-0-----0-0-0-0|0-0-0-0-----0-0-0-0-----0-0----|

E  :-------------------------------|-------------------------------|
B  :-------------------------------|-------------------------------|
Gb :--------*-----------*----------|--------*-----------*-------*--|
B  :0-0-0-0-----0-0-0-0-----0-0-0-0|0-0-0-0-----0-0-0-0-----0-0----|

Db :-------------------------------|-------------------------------|
Ab :-------------------------------|-------------------------------|
E  :-------------------------------|-------------------------------|
B  :-------------------------------|-------------------------------|
Gb :-------------------------------|-------------------------------|
B  :5-4-5-4-5-4-5-4-8-5-8-5-7-5-7-5|5-4-5-4-5-4-5-4-8-5-8-5-7-5-7-5|

============================================================================

Db :-------------------------------|-------------------------------|
Ab :-------------------------------|-------------------------------|
E  :-------------------------------|-------------------------------|
B  :0-0-0-0-----0-0-0-0-----0-0-0-0|0-0-0-0-----0-0-0-0-----0-0----|
Gb :0-0-0-0-*---0-0-0-0-*---0-0-0-0|0-0-0-0-*---0-0-0-0-*---0-0-*--|
B  :0-0-0-0-----0-0-0-0-----0-0-0-0|0-0-0-0-----0-0-0-0-----0-0----|

Db :-------------------------------|-------------------------------|
Ab :-------------------------------|-------------------------------|
E  :-------------------------------|-------------------------------|
B  :0-0-0-0-----0-0-0-0-----0-0-0-0|0-0-0-0-----0-0-0-0-----0-0----|
Gb :0-0-0-0-*---0-0-0-0-*---0-0-0-0|0-0-0-0-*---0-0-0-0-*---0-0-*--|
B  :0-0-0-0-----0-0-0-0-----0-0-0-0|0-0-0-0-----0-0-0-0-----0-0----|

E  :-------------------------------|-------------------------------|
B  :-------------------------------|-------------------------------|
Gb :--------*-----------*----------|--------*-----------*-------*--|
B  :0-0-0-0-----0-0-0-0-----0-0-0-0|0-0-0-0-----0-0-0-0-----0-0----|

Db :-------------------------------|-------------------------------|
Ab :-------------------------------|-------------------------------|
E  :-------------------------------|-------------------------------|
B  :-------------------------------|-------------------------------|
Gb :-------------------------------|-------------------------------|
B  :5-4-5-4-5-4-5-4-8-5-8-5-7-5-7-5|5-4-5-4-5-4-5-4-8-5-8-5-7-5-7-5|

============================================================================

Db :-------------------------------|-------------------------------|
Ab :-------------------------------|-------------------------------|
E  :-------------------------------|-------------------------------|
B  :0-0-0-0-----0-0-0-0-----0-0-0-0|0-0-0-0-----0-0-0-0-----0-0----|
Gb :0-0-0-0-*---0-0-0-0-*---0-0-0-0|0-0-0-0-*---0-0-0-0-*---0-0-*--|
B  :0-0-0-0-----0-0-0-0-----0-0-0-0|0-0-0-0-----0-0-0-0-----0-0----|

Db :-------------------------------|-------------------------------|
Ab :-------------------------------|-------------------------------|
E  :-------------------------------|-------------------------------|
B  :0-0-0-0-----0-0-0-0-----0-0-0-0|0-0-0-0-----0-0-0-0-----0-0----|
Gb :0-0-0-0-*---0-0-0-0-*---0-0-0-0|0-0-0-0-*---0-0-0-0-*---0-0-*--|
B  :0-0-0-0-----0-0-0-0-----0-0-0-0|0-0-0-0-----0-0-0-0-----0-0----|

E  :-------------------------------|-------------------------------|
B  :-------------------------------|-------------------------------|
Gb :--------*-----------*----------|--------*-----------*-------*--|
B  :0-0-0-0-----0-0-0-0-----0-0-0-0|0-0-0-0-----0-0-0-0-----0-0----|

Db :-------------------------------|-------------------------------|
Ab :-------------------------------|-------------------------------|
E  :-------------------------------|-------------------------------|
B  :-------------------------------|-------------------------------|
Gb :-------------------------------|-------------------------------|
B  :5-4-5-4-5-4-5-4-8-5-8-5-7-5-7-5|5-4-5-4-5-4-5-4-8-5-8-5-7-5-7-5|

============================================================================

Db :------------------------|----------------|-----------------|
Ab :------------------------|----------------|-----------------|
E  :----------------------3-|----------------|-----------------|
B  :------------------5-4---|------7---------|-----------------|
Gb :------------0-4-7-------|5-0-------5---6-|--10-9---6-9-6-5-|
B  :------------------------|----8---0---0---|0------0---------|

Db :------------------------|----------------|-----------------|
Ab :------------------------|----------------|-----------------|
E  :----------------------7-|----------------|-----------------|
B  :----------------5-8-7---|------7---------|-----------------|
Gb :5---------5-4-7---------|5-0-------5---6-|--10-9---6-9-6-5-|
B  :----0-5-8---------------|----8---0---0---|0------0---------|

E  :------------------------|----------------|-----------------|
B  :------------------------|------7---------|-----------------|
Gb :------------------------|5-0-------------|-----------------|
B  :------------------------|----8---0-0-0-0-|0--0-0-0-0-0-0-0-|

Db :------------------------|----------------|-----------------|
Ab :------------------------|----------------|-----------------|
E  :------------------------|----------------|-----------------|
B  :------------------------|----------------|-----------------|
Gb :------------------------|----------------|-----------------|
B  :*-----------------------|----------------|-----------------|

============================================================================

Db :--------------------|----------------|----------------|
Ab :--------------------|----------------|----------------|
E  :--------------------|----------------|----------------|
B  :7-0-----------------|----7-5-4-5-4---|------7---------|
Gb :--------------------|5-6-----------6-|5-0-------5---6-|
B  :----0-0-0-0-0-0-0-0-|----------------|----8---0---0---|

Db :--------------------|----------------|----------------|
Ab :--------------------|----------------|----------------|
E  :--------------------|----------------|----------------|
B  :7-0-----------------|----7-5-4-5-4---|------7---------|
Gb :--------------------|5-6-----------6-|5-0-------5---6-|
B  :----0-0-0-0-0-0-0-0-|----------------|----8---0---0---|

E  :--------------------|----------------|----------------|
B  :7-0-----------------|----------------|------7---------|
Gb :--------------------|----------------|5-0-------------|
B  :----0-0-0-0-0-0-0-0-|1-1-1-1-1-1-1-1-|----8---0-0-0-0-|

Db :--------------------|----------------|----------------|
Ab :--------------------|----------------|----------------|
E  :--------------------|----------------|----------------|
B  :--------------------|----------------|----------------|
Gb :--------------------|----------------|----------------|
B  :--------------------|----------------|----------------|

============================================================================

Db :-----------------|--------------------|----------------|
Ab :-----------------|--------------------|----------------|
E  :-----------------|--------------------|----------------|
B  :-----------------|7-0-----------------|----7-5-4-5-4---|
Gb :--10-9---6-9-6-5-|--------------------|5-6-----------6-|
B  :0------0---------|----0-0-0-0-0-0-0-0-|----------------|

Db :-----------------|--------------------|----------------|
Ab :-----------------|--------------------|----------------|
E  :-----------------|--------------------|----------------|
B  :-----------------|7-0-----------------|----7-5-4-5-4---|
Gb :--10-9---6-9-6-5-|--------------------|5-6-----------6-|
B  :0------0---------|----0-0-0-0-0-0-0-0-|----------------|

E  :-----------------|--------------------|----------------|
B  :-----------------|7-0-----------------|----------------|
Gb :-----------------|--------------------|----------------|
B  :0--0-0-0-0-0-0-0-|----0-0-0-0-0-0-0-0-|1-1-1-1-1-1-1-1-|

Db :-----------------|--------------------|----------------|
Ab :-----------------|--------------------|----------------|
E  :-----------------|--------------------|----------------|
B  :-----------------|--------------------|----------------|
Gb :-----------------|--------------------|----------------|
B  :-----------------|--------------------|----------------|

============================================================================

Db :----------------|----------------------|----------------|
Ab :----------------|----------------------|----------------|
E  :----------------|----------------------|----------------|
B  :------7---------|----------------------|------7---------|
Gb :5-0-------------|----------------------|5-0-------5---6-|
B  :----8---0-0-0-0-|0-0-0-0-0-0-0-0-0-0-0-|----8---0---0---|

Db :----------------|----------------------|----------------|
Ab :----------------|----------------------|----------------|
E  :----------------|----------------------|----------------|
B  :------7---------|----------------------|------7---------|
Gb :5-0-------------|----------------------|5-0-------5---6-|
B  :----8---0-0-0-0-|0-0-0-0-0-0-0-0-0-0-0-|----8---0---0---|

E  :----------------|----------------------|----------------|
B  :------7---------|----------------------|------7---------|
Gb :5-0-------------|----------------------|5-0-------5---6-|
B  :----8---0-0-0-0-|0-0-0-0-0-0-0-0-0-0-0-|----8---0---0---|

Db :----------------|----------------------|----------------|
Ab :----------------|----------------------|----------------|
E  :----------------|----------------------|----------------|
B  :----------------|----------------------|----------------|
Gb :----------------|----------------------|----------------|
B  :----------------|----------------------|----------------|

============================================================================

Db :-----------------|----------------|----------------------|
Ab :-----------------|----------------|----------------------|
E  :-----------------|----------------|----------------------|
B  :-----------------|------7---------|----------------------|
Gb :--10-9---6-9-6-5-|5-0-------------|----------------------|
B  :0------0---------|----8---0-0-0-0-|0-0-0-0-0-0-0-0-0-0-0-|

Db :-----------------|----------------|----------------------|
Ab :-----------------|----------------|----------------------|
E  :-----------------|----------------|----------------------|
B  :-----------------|------7---------|----------------------|
Gb :--10-9---6-9-6-5-|5-0-------------|----------------------|
B  :0------0---------|----8---0-0-0-0-|0-0-0-0-0-0-0-0-0-0-0-|

E  :-----------------|----------------|----------------------|
B  :-----------------|------7---------|----------------------|
Gb :--10-9---6-9-6-5-|5-0-------------|----------------------|
B  :0------0---------|----8---0-0-0-0-|0-0-0-0-0-0-0-0-0-0-0-|

Db :-----------------|----------------|----------------------|
Ab :-----------------|----------------|----------------------|
E  :-----------------|----------------|----------------------|
B  :-----------------|----------------|----------------------|
Gb :-----------------|----------------|----------------------|
B  :-----------------|----------------|----------------------|

============================================================================

Db :----------------|-----------------|-----------------------|
Ab :----------------|-----------------|-----------------------|
E  :----------------|-----------------|-----------------------|
B  :------7---------|-----------------|-0---------------------|
Gb :5-0-------5---6-|--10-9---6-9-6-5-|-0---------------------|
B  :----8---0---0---|0------0---------|-0---------------------|

Db :----------------|-----------------|-----------------------|
Ab :----------------|-----------------|-----------------------|
E  :----------------|-----------------|-----------------------|
B  :------7---------|-----------------|-0---------------------|
Gb :5-0-------5---6-|--10-9---6-9-6-5-|-0---------------------|
B  :----8---0---0---|0------0---------|-0---------------------|

E  :----------------|-----------------|-----------------------|
B  :------7---------|-----------------|-----------------------|
Gb :5-0-------5---6-|--10-9---6-9-6-5-|-----------------------|
B  :----8---0---0---|0------0---------|-0---------------------|

Db :----------------|-----------------|13-17-13---------------|
Ab :----------------|-----------------|---------15------------|
E  :----------------|-----------------|------------14---------|
B  :----------------|-----------------|-----------------------|
Gb :----------------|-----------------|-----------------------|
B  :----------------|-----------------|-----------------------|

============================================================================

Db :----------------------------|--------------------|
Ab :----------------------------|--------------------|
E  :----------------------------|--------------------|
B  :----------------------------|-8------------------|
Gb :----------------------------|-8------------------|
B  :----------------------------|-8------------------|

Db :----------------------------|--------------------|
Ab :----------------------------|--------------------|
E  :----------------------------|--------------------|
B  :----------------------------|-8------------------|
Gb :----------------------------|-8------------------|
B  :----------------------------|-8------------------|

E  :----------------------------|--------------------|
B  :----------------------------|--------------------|
Gb :----------------------------|--------------------|
B  :----------------------------|-8------------------|

Db :----------------------------|------17------------|
Ab :---------14-15-b17-15-14-15-|14------------------|
E  :15-14-15--------------------|---15----12---------|
B  :----------------------------|--------------------|
Gb :----------------------------|--------------------|
B  :----------------------------|--------------------|

============================================================================

Db :-------------------------|-------------------|
Ab :-------------------------|-------------------|
E  :-------------------------|-------------------|
B  :-------------------------|-0-----------------|
Gb :-------------------------|-0-----------------|
B  :-------------------------|-0-----------------|

Db :-------------------------|-------------------|
Ab :-------------------------|-------------------|
E  :-------------------------|-------------------|
B  :-------------------------|-0-----------------|
Gb :-------------------------|-0-----------------|
B  :-------------------------|-0-----------------|

E  :-------------------------|-------------------|
B  :-------------------------|-------------------|
Gb :-------------------------|-------------------|
B  :-------------------------|-0-----------------|

Db :-------------------------|-------------------|
Ab :-------------------------|-------------------|
E  :12-11-12-14-b15-14-12-11-|12-----------------|
B  :-------------------------|---13-*-12---------|
Gb :-------------------------|-------------------|
B  :-------------------------|-------------------|

============================================================================

Db :---------------------------|------------------------------|
Ab :---------------------------|------------------------------|
E  :---------------------------|------------------------------|
B  :---------------------------|-8----------------------------|
Gb :---------------------------|-8----------------------------|
B  :---------------------------|-8----------------------------|

Db :---------------------------|------------------------------|
Ab :---------------------------|------------------------------|
E  :---------------------------|------------------------------|
B  :---------------------------|-8----------------------------|
Gb :---------------------------|-8----------------------------|
B  :---------------------------|-8----------------------------|

E  :---------------------------|------------------------------|
B  :---------------------------|------------------------------|
Gb :---------------------------|------------------------------|
B  :---------------------------|-8----------------------------|

Db :---------------------------|17-18-17-18-17-15-14-15-14----|
Ab :---------------------14-15-|---------------------------16-|
E  :------11-12-11-14-15-------|------------------------------|
B  :12-13----------------------|------------------------------|
Gb :---------------------------|------------------------------|
B  :---------------------------|------------------------------|

============================================================================

Db :---------------------------|---------------------------|
Ab :---------------------------|---------------------------|
E  :---------------------------|---------------------------|
B  :---------------------------|-0-------------------------|
Gb :---------------------------|-0-------------------------|
B  :---------------------------|-0-------------------------|

Db :---------------------------|---------------------------|
Ab :---------------------------|---------------------------|
E  :---------------------------|---------------------------|
B  :---------------------------|-0-------------------------|
Gb :---------------------------|-0-------------------------|
B  :---------------------------|-0-------------------------|

E  :---------------------------|---------------------------|
B  :---------------------------|---------------------------|
Gb :---------------------------|---------------------------|
B  :---------------------------|-0-------------------------|

Db :14-------------------------|---------------------------|
Ab :---16-15-16-15----15-------|---------------------------|
E  :---------------17----17-15-|17-15-14-15-14----14-------|
B  :---------------------------|---------------16----16-15-|
Gb :---------------------------|---------------------------|
B  :---------------------------|---------------------------|

============================================================================

Db :------------------------|-----------------|----------------|
Ab :------------------------|-----------------|----------------|
E  :------------------------|-----------------|----------------|
B  :------------------------|-8---------------|----------------|
Gb :------------------------|-8---------------|----------------|
B  :------------------------|-8---------------|----------------|

Db :------------------------|-----------------|----------------|
Ab :------------------------|-----------------|----------------|
E  :------------------------|-----------------|----------------|
B  :------------------------|-8---------------|----------------|
Gb :------------------------|-8---------------|----------------|
B  :------------------------|-8---------------|----------------|

E  :------------------------|-----------------|----------------|
B  :------------------------|-----------------|----------------|
Gb :------------------------|-----------------|----------------|
B  :------------------------|-8---------------|----------------|

Db :------------------------|17---------------|----------------|
Ab :------------------------|-----------------|----------------|
E  :------------------------|14---------------|----------------|
B  :16-15-------------------|-----------------|----------------|
Gb :------17-16-13-16-13-12-|12---------------|----------------|
B  :------------------------|-----------------|----------------|

============================================================================

Db :----------------|----------------|----------------|----------------|
Ab :----------------|----------------|----------------|----------------|
E  :----------------|----------------|----------------|----------------|
B  :0---------------|----------------|8---------------|----------------|
Gb :0---------------|----------------|8---------------|----------------|
B  :0---------------|----------------|8---------------|----------------|

Db :----------------|----------------|----------------|----------------|
Ab :----------------|----------------|----------------|----------------|
E  :----------------|----------------|----------------|----------------|
B  :0---------------|----------------|8---------------|----------------|
Gb :0---------------|----------------|8---------------|----------------|
B  :0---------------|----------------|8---------------|----------------|

E  :----------------|----------------|----------------|----------------|
B  :----------------|----------------|----------------|----------------|
Gb :----------------|----------------|----------------|----------------|
B  :0---------------|----------------|8---------------|----------------|

Db :----------------|----------------|----------------|----------------|
Ab :----------------|----------------|----------------|----------------|
E  :----------------|----------------|----------------|----------------|
B  :----------------|----------------|----------------|----------------|
Gb :----------------|----------------|----------------|----------------|
B  :*---------------|----------------|----------------|----------------|

============================================================================

Db :--------------------------|-----------------------------|
Ab :--------------------------|-----------------------------|
E  :--------------------------|-----------------------------|
B  :--------------------------|-----------------------------|
Gb :--------------------------|-----------------------------|
B  :*-------------------------|-----------------------------|

Db :--------------------------|-----------------------------|
Ab :--------------------------|-----------------------------|
E  :--------------------------|-----------------------------|
B  :0-7-8-7-0-----------------|0-7-8-7-0--------------------|
Gb :------------8-10-8-0-4-5-7|------------12-0-7-8-10-0-4-7|
B  :----------8---------------|----------8------------------|

E  :--------------------------|-----------------------------|
B  :--------------------------|-----------------------------|
Gb :--------------------------|-----------------------------|
B  :*-------------------------|-----------------------------|

Db :--------------------------|-----------------------------|
Ab :--------------------------|-----------------------------|
E  :--------------------------|-----------------------------|
B  :--------------------------|-----------------------------|
Gb :--------------------------|-----------------------------|
B  :--------------------------|-----------------------------|

============================================================================

Db :--------------------------|-----------------------------|
Ab :--------------------------|-----------------------------|
E  :--------------------------|-----------------------------|
B  :0-7-8-7-0-----------------|0-7-8-7-0--------------------|
Gb :------------8-10-8-0-4-5-7|------------12-0-7-8-10-0-4-7|
B  :----------8---------------|----------8------------------|

Db :--------------------------|-----------------------------|
Ab :--------------------------|-----------------------------|
E  :--------------------------|-----------------------------|
B  :0-7-8-7-0-----------------|0-7-8-7-0--------------------|
Gb :------------8-10-8-0-4-5-7|------------12-0-7-8-10-0-4-7|
B  :----------8---------------|----------8------------------|

E  :--------------------------|-----------------------------|
B  :0-7-----------------------|0-7--------------------------|
Gb :------------8--------4-5-7|-----------------------------|
B  :----------8---------------|----------8--7--------5------|

Db :--------------------------|-----------------------------|
Ab :--------------------------|-----------------------------|
E  :--------------------------|-----------------------------|
B  :--------------------------|-----------------------------|
Gb :--------------------------|-----------------------------|
B  :--------------------------|-----------------------------|

============================================================================

Db :--------------------------|-----------------------------|
Ab :--------------------------|-----------------------------|
E  :--------------------------|-----------------------------|
B  :0-7-8-7-0-----------------|0-7-8-7-0--------------------|
Gb :------------8-10-8-0-4-5-7|------------12-0-7-8-10-0-4-7|
B  :----------8---------------|----------8------------------|

Db :--------------------------|-----------------------------|
Ab :--------------------------|-----------------------------|
E  :--------------------------|-----------------------------|
B  :0-7-8-7-0-----------------|0-7-8-7-0--------------------|
Gb :------------8-10-8-0-4-5-7|------------12-0-7-8-10-0-4-7|
B  :----------8---------------|----------8------------------|

E  :--------------------------|-----------------------------|
B  :0-7-----------------------|0-7--------------------------|
Gb :------------8--------4-5-7|-----------------------------|
B  :----------8---------------|----------8--7--------5------|

Db :--------------------------|-----------------------------|
Ab :--------------------------|-----------------------------|
E  :--------------------------|-----------------------------|
B  :--------------------------|-----------------------------|
Gb :--------------------------|-----------------------------|
B  :--------------------------|-----------------------------|

============================================================================

Db :--------------------------|-----------------------------|
Ab :--------------------------|-----------------------------|
E  :--------------------------|-----------------------------|
B  :0-7-8-7-0-----------------|0-7-8-7-0--------------------|
Gb :------------8-10-8-0-4-5-7|------------12-0-7-8-10-0-4-7|
B  :----------8---------------|----------8------------------|

Db :--------------------------|-----------------------------|
Ab :--------------------------|-----------------------------|
E  :--------------------------|-----------------------------|
B  :0-7-8-7-0-----------------|0-7-8-7-0--------------------|
Gb :------------8-10-8-0-4-5-7|------------12-0-7-8-10-0-4-7|
B  :----------8---------------|----------8------------------|

E  :--------------------------|-----------------------------|
B  :0-7-----------------------|0-7--------------------------|
Gb :------------8--------4-5-7|-----------------------------|
B  :----------8---------------|----------8--7--------5------|

Db :--------------------------|-----------------------------|
Ab :--------------------------|-----------------------------|
E  :--------------------------|-----------------------------|
B  :--------------------------|-----------------------------|
Gb :--------------------------|-----------------------------|
B  :--------------------------|-----------------------------|

============================================================================

Db :--------------------------|-----------------------------|
Ab :--------------------------|-----------------------------|
E  :--------------------------|-----------------------------|
B  :0-7-8-7-0-----------------|0-7-8-7-0--------------------|
Gb :------------8-10-8-0-4-5-7|------------12-0-7-8-10-0-4-7|
B  :----------8---------------|----------8------------------|

Db :--------------------------|-----------------------------|
Ab :--------------------------|-----------------------------|
E  :--------------------------|-----------------------------|
B  :0-7-8-7-0-----------------|0-7-8-7-0--------------------|
Gb :------------8-10-8-0-4-5-7|------------12-0-7-8-10-0-4-7|
B  :----------8---------------|----------8------------------|

E  :--------------------------|-----------------------------|
B  :0-7-----------------------|0-7--------------------------|
Gb :------------8--------4-5-7|-----------------------------|
B  :----------8---------------|----------8--7--------5------|

Db :--------------------------|-----------------------------|
Ab :--------------------------|-----------------------------|
E  :--------------------------|-----------------------------|
B  :--------------------------|-----------------------------|
Gb :--------------------------|-----------------------------|
B  :--------------------------|-----------------------------|

============================================================================

Db :--------------------------|-----------------------------|
Ab :--------------------------|-----------------------------|
E  :--------------------------|-----------------------------|
B  :0-7-8-7-0-----------------|0-7-8-7-0--------------------|
Gb :------------8-10-8-0-4-5-7|------------12-0-7-8-10-0-4-7|
B  :----------8---------------|----------8------------------|

Db :--------------------------|-----------------------------|
Ab :--------------------------|-----------------------------|
E  :--------------------------|-----------------------------|
B  :0-7-8-7-0-----------------|0-7-8-7-0--------------------|
Gb :------------8-10-8-0-4-5-7|------------12-0-7-8-10-0-4-7|
B  :----------8---------------|----------8------------------|

E  :--------------------------|-----------------------------|
B  :0-7-----------------------|0-7--------------------------|
Gb :------------8--------4-5-7|-----------------------------|
B  :----------8---------------|----------8--7--------5------|

Db :--------------------------|-----------------------------|
Ab :--------------------------|-----------------------------|
E  :--------------------------|-----------------------------|
B  :--------------------------|-----------------------------|
Gb :--------------------------|-----------------------------|
B  :--------------------------|-----------------------------|

============================================================================

Db :--------------------------|-----------------------------|
Ab :--------------------------|-----------------------------|
E  :--------------------------|-----------------------------|
B  :0-7-8-7-0-----------------|0-7-8-7-0--------------------|
Gb :------------8-10-8-0-4-5-7|------------12-0-7-8-10-0-4-7|
B  :----------8---------------|----------8------------------|

Db :--------------------------|-----------------------------|
Ab :--------------------------|-----------------------------|
E  :--------------------------|-----------------------------|
B  :0-7-8-7-0-----------------|0-7-8-7-0--------------------|
Gb :------------8-10-8-0-4-5-7|------------12-0-7-8-10-0-4-7|
B  :----------8---------------|----------8------------------|

E  :--------------------------|-----------------------------|
B  :0-7-----------------------|0-7--------------------------|
Gb :------------8--------4-5-7|-----------------------------|
B  :----------8---------------|----------8--7--------5------|

Db :--------------------------|-----------------------------|
Ab :--------------------------|--6--------------------------|
E  :--------------------------|-----------------------------|
B  :--------------------------|-----------------------------|
Gb :--------------------------|-----------------------------|
B  :--------------------------|-----------------------------|

============================================================================

Db :--------------------|--------------------|----------------------|
Ab :--------------------|--------------------|----------------------|
E  :--------------------|--------------------|----------------------|
B  :0---0-0-0-0--0---0-0|0-0--0---0-0-0-0--0-|--0-0-0-0--0---0-0-0-0|
Gb :0---0-0-0-0--0---0-0|0-0--0---0-0-0-0--0-|--0-0-0-0--0---0-0-0-0|
B  :0-*-0-0-0-0*-0*--0-0|0-0*-0*--0-0-0-0*-0*|--0-0-0-0*-0*--0-0-0-0|

Db :--------------------|--------------------|----------------------|
Ab :--------------------|--------------------|----------------------|
E  :--------------------|--------------------|----------------------|
B  :0---0-0-0-0--0---0-0|0-0--0---0-0-0-0--0-|--0-0-0-0--0---0-0-0-0|
Gb :0---0-0-0-0--0---0-0|0-0--0---0-0-0-0--0-|--0-0-0-0--0---0-0-0-0|
B  :0-*-0-0-0-0*-0*--0-0|0-0
comments
We did not receive enough feedback on this tab! Please rate:
1 2 3 4 5
I want to post or [tab]
guest
You may want to rate the tab now too:
select rating
Please do not post tabs as comments. Select "correction" instead!