Oops, an error
Loading. Please wait.

In Reference To A Sinking Ship - Hounds Tab

556 views 1 this week
no commentswrite comment
1 2 3 4 5
please rate
add to favorites launch autoscroll
font size
0
reset
Autoscroll
+/-
esc
set tempo
stop
Contributor
Difficulty
Tuning
intermediate
B F# B E G# C#
WARNING: You are trying to view
                                    content from Ultimate-Guitar.com
                                    in an unauthorized application,
                                    which is prohibited.

                                    Please use an official Ultimate
                                    Guitar Tabs application for iPhone,
                                    iPad or Android to access legitimate
                                    chords, guitar, bass, and drum tabs
                                    from Ultimate-Guitar.com database.

                                    Type "ultimate guitar tabs" in Apple
                                    App Store's or Android Market's
                                    search to find the application.
Hounds by In Reference to a Sinking Ship
Line 1 - Right Guitar
Line 2 - Left Guitar
Line 3 - Bass
Line 4 - Center Guitar

Db :------------|------------|------------|------------|------------|
Ab :------------|------------|------------|------------|------------|
E  :------------|------------|------------|------------|------------|
B  :------------|------------|------------|------------|------------|
Gb :------------|------------|------------|------5-4-1-|------6---6-|
B  :------------|------------|------------|------5-4-1-|0-1-0---0---|

Db :------------|------------|------------|------------|------------|
Ab :------------|------------|------------|------------|------------|
E  :------------|------------|------------|------------|------------|
B  :------------|------------|------------|------------|------------|
Gb :------------|------------|------------|------5-4-1-|------6---6-|
B  :------------|------------|------------|------5-4-1-|0-1-0---0---|

E  :------------|------------|------------|------------|------------|
B  :------------|------------|------------|------------|------------|
Gb :------------|------------|------------|------------|------6---6-|
B  :------------|------------|------------|------5-4-1-|0-1-0---0---|

Db :------------|------------|------------|------------|------------|
Ab :------------|------------|------------|------------|------------|
E  :------------|------------|------------|------------|------------|
B  :------------|------------|------------|------------|------------|
Gb :------------|------------|------------|------------|------------|
B  :------------|------------|------------|------------|------------|
                                                                    

============================================================================

Db :--------------|------------|------------|------------|--------------|
Ab :--------------|------------|------------|------------|--------------|
E  :--------------|------------|------------|------------|--------------|
B  :--------------|------4---4-|------7-----|------------|--------------|
Gb :*-------------|------------|--------*---|------6---6-|------0-1-0---|
B  :--------------|0-1-0---1---|0-1-4-------|0-1-0---0---|0-1-5-------5-|

Db :--------------|------------|------------|------------|--------------|
Ab :--------------|------------|------------|------------|--------------|
E  :--------------|------------|------------|------------|--------------|
B  :--------------|------1---1-|------4-*---|------------|--------------|
Gb :------0-1-0---|------------|------------|------6---6-|------0-1-0---|
B  :0-1-5-------5-|0-1-0---1---|0-1-4-------|0-1-0---0---|0-1-5-------5-|

E  :--------------|------------|------------|------------|--------------|
B  :--------------|------------|------------|------------|--------------|
Gb :*-------------|------------|------------|------6---6-|------0-1-0---|
B  :--------------|0-1-0-1-1-1-|0-1-4-4-*---|0-1-0---0---|0-1-5-------5-|

Db :--------------|------------|------------|------------|--------------|
Ab :--------------|------------|------------|------------|--------------|
E  :--------------|------------|------------|------------|--------------|
B  :--------------|------------|------------|------------|--------------|
Gb :--------------|------------|------------|------------|--------------|
B  :--------------|------------|------------|------------|--------------|
                                                                        

============================================================================

Db :------------|| ------------|------------|--------------|------------ 1|
Ab :------------|| ------------|------------|--------------|------------ ||
E  :------------||*------------|------------|--------------|------------*||
B  :------4---4-||*------7---7-|------------|--------------|------4---4-*||
Gb :------------|| ------------|------6---6-|------0-1-0---|------------ ||
B  :0-1-0---1---|| 0-1-4---4---|0-1-0---0---|0-1-5-------5-|0-1-0---1--- ||

Db :------------|| ------------|------------|--------------|------------ 1|
Ab :------------|| ------------|------------|--------------|------------ ||
E  :------------||*------------|------------|--------------|------------*||
B  :------4---4-||*------7---7-|------------|--------------|------4---4-*||
Gb :------------|| ------------|------6---6-|------0-1-0---|------------ ||
B  :0-1-0---1---|| 0-1-4---4---|0-1-0---0---|0-1-5-------5-|0-1-0---1--- ||

E  :------------|| ------------|------------|--------------|------------ 1|
B  :------------||*------------|------------|--------------|------------*||
Gb :------------||*------------|------6---6-|------0-1-0---|------------*||
B  :0-1-0-1-1-1-|| 0-1-4-4-4-4-|0-1-0---0---|0-1-5-------5-|0-1-0-1-1-1- ||

Db :------------|| ------------|------------|--------------|------------ 1|
Ab :------------|| ------------|------------|--------------|------------ ||
E  :------------||*------------|------------|--------------|------------*||
B  :------------||*------------|------------|--------------|------------*||
Gb :------------|| ------------|------------|--------------|------------ ||
B  :------------|| ------------|------------|--------------|------------ ||
                                                                          

============================================================================

Db :------------|------------|--------------|------------|------------|
Ab :------------|------------|--------------|------------|------------|
E  :------------|------------|--------------|------------|------------|
B  :------7---7-|------------|--------------|------4---4-|------7-*---|
Gb :------------|------6---6-|------0-1-0---|------------|------------|
B  :0-1-4---4---|0-1-0---0---|0-1-5-------5-|0-1-0---1---|0-1-4-------|

Db :------------|------------|--------------|------------|------------|
Ab :------------|------------|--------------|------------|------------|
E  :------------|------------|--------------|------------|------------|
B  :------7---7-|------------|--------------|------1---1-|------4-*---|
Gb :------------|------6---6-|------0-1-0---|------------|------------|
B  :0-1-4---4---|0-1-0---0---|0-1-5-------5-|0-1-0---1---|0-1-4-------|

E  :------------|------------|--------------|------------|------------|
B  :------------|------------|--------------|------------|------------|
Gb :------------|------6---6-|------0-1-0---|------------|------------|
B  :0-1-4-4-4-4-|0-1-0---0---|0-1-5-------5-|0-1-0-1-1-1-|0-1-4-4-*---|

Db :------------|------------|--------------|------------|------------|
Ab :------------|------------|--------------|------------|------------|
E  :------------|------------|--------------|------------|------------|
B  :------------|------------|--------------|------------|------------|
Gb :------------|------------|--------------|------------|------------|
B  :------------|------------|--------------|------------|------------|
                                                                      

============================================================================

Db :--------------|---------------|------------|------------|--------------|
Ab :--------------|---------------|------------|------------|--------------|
E  :--------------|----7-5-7-5----|--5---------|------------|--------------|
B  :--------------|4-5----------8-|8-----7-5-4-|------------|--------------|
Gb :------0-1-0---|---------------|------------|6-----5-3-0-|------0-1-0---|
B  :4-5-0-------0-|---------------|----0-------|--0-0-------|4-5-0-------0-|

Db :--------------|---------------|------------|------------|--------------|
Ab :--------------|---------------|------------|------------|--------------|
E  :--------------|---------------|------------|------------|--------------|
B  :--------------|----8-7-8-7----|5-7---4-----|------------|--------------|
Gb :------0-1-0---|5-6---------10-|--------6-5-|3-----1-0---|------0-1-0---|
B  :4-5-0-------0-|---------------|----0-------|--0-0-----4-|4-5-0-------0-|

E  :--------------|---------------|------------|------------|--------------|
B  :--------------|----5----------|------------|------------|--------------|
Gb :--------------|5-6------------|------------|3-----1-0---|--------------|
B  :4-5-0-0---0-0-|------0---0--0-|0-0-0-0-0-0-|--0-0-----4-|4-5-0-0---0-0-|

Db :--------------|---------------|------------|------------|--------------|
Ab :--------------|---------------|------------|------------|--------------|
E  :--------------|---------------|------------|------------|--------------|
B  :--------------|---------------|------------|------------|--------------|
Gb :--------------|---------------|------------|------------|--------------|
B  :--------------|---------------|------------|------------|--------------|
                                                                           

============================================================================

Db :------------|------------|------------|--------------|---------------|
Ab :------------|------------|------------|--------------|---------------|
E  :------------|------------|------------|--------------|----7-5-7-5----|
B  :------0---1-|------------|----------4-|--------------|4-5----------8-|
Gb :1-3-1---0---|5-----1-----|7-----------|------0-1-0---|---------------|
B  :------------|5-----1-----|7-----8-7---|4-5-0-------0-|---------------|

Db :------------|------------|------------|--------------|---------------|
Ab :------------|------------|------------|--------------|---------------|
E  :------------|------------|------------|--------------|---------------|
B  :------4---5-|7---7-8---7-|4-----7-4---|--------------|----8-7-8-7----|
Gb :5-6-5---3---|--6-----5---|--5-6-----6-|------0-1-0---|5-6---------10-|
B  :------------|------------|------------|4-5-0-------0-|---------------|

E  :------------|------------|------------|--------------|---------------|
B  :------------|------------|------------|--------------|----5----------|
Gb :5-6-5-------|------------|0-----1-0---|--------------|5-6------------|
B  :------0-0-0-|5-----1-----|----------4-|4-5-0-0---0-0-|------0---0--0-|

Db :------------|------------|------------|--------------|---------------|
Ab :------------|------------|------------|--------------|---------------|
E  :------------|------------|------------|--------------|---------------|
B  :------------|------------|------------|--------------|---------------|
Gb :------------|------------|------------|--------------|---------------|
B  :------------|------------|------------|--------------|---------------|
                                                                         

============================================================================

Db :------------|------------|--------------|------------|------------|
Ab :------------|------------|--------------|------------|------------|
E  :--5---------|------------|--------------|------------|------------|
B  :8-----7-5-4-|------------|--------------|------0---1-|------------|
Gb :------------|6-----5-3-0-|------0-1-0---|1-3-1---0---|5-----1-----|
B  :----0-------|--0-0-------|4-5-0-------0-|------------|5-----1-----|

Db :------------|------------|--------------|------------|------------|
Ab :------------|------------|--------------|------------|------------|
E  :------------|------------|--------------|------------|------------|
B  :5-7---4-----|------------|--------------|------4---5-|7---7-8---7-|
Gb :--------6-5-|3-----1-0---|------0-1-0---|5-6-5---3---|--6-----5---|
B  :----0-------|--0-0-----4-|4-5-0-------0-|------------|------------|

E  :------------|------------|--------------|------------|------------|
B  :------------|------------|--------------|------------|------------|
Gb :------------|3-----1-0---|--------------|5-6-5-------|------------|
B  :0-0-0-0-0-0-|--0-0-----4-|4-5-0-0---0-0-|------0-0-0-|5-----1-----|

Db :------------|------------|--------------|------------|------------|
Ab :------------|------------|--------------|------------|------------|
E  :------------|------------|--------------|------------|------------|
B  :------------|------------|--------------|------------|------------|
Gb :------------|------------|--------------|------------|------------|
B  :------------|------------|--------------|------------|------------|
                                                                      

============================================================================

Db :------------|--------------|-------------|------------|------------|
Ab :------------|--------------|-------------|------------|------------|
E  :------------|--------------|-------------|------------|------------|
B  :----------4-|--------------|-------------|------------|------4-----|
Gb :7-----------|5-------------|-------------|3-----------|5-------6-3-|
B  :7-----8-7---|--0-0-0-0-0-0-|1-0-0-1-b4-1-|--0-0-0-0-0-|--0-0-------|

Db :------------|--------------|-------------|------------|------------|
Ab :------------|--------------|-------------|------------|------------|
E  :------------|--------------|-------------|------------|------------|
B  :4-----7-4---|--------------|-------------|------------|------4-----|
Gb :--5-6-----6-|5-------------|-------------|3-----------|5-------6-3-|
B  :------------|--0-0-0-0-0-0-|1-0-0-1-b4-1-|--0-0-0-0-0-|--0-0-------|

E  :------------|--------------|-------------|------------|------------|
B  :------------|--------------|-------------|--1---0-----|--------1---|
Gb :0-----1-0---|5-------------|-------------|3---3---2---|------3---3-|
B  :----------4-|--0---0-0-0-0-|1-0-0-0--0-0-|----------4-|0-0-0-------|

Db :------------|--------------|-------------|------------|------------|
Ab :------------|--------------|-------------|------------|------------|
E  :------------|--------------|-------------|------------|------------|
B  :------------|--------------|-------------|------------|------------|
Gb :------------|--------------|-------------|------------|------------|
B  :------------|--------------|-------------|------------|------------|
                                                                       

============================================================================

Db :--------------|-------------|--------------|-------------|
Ab :--------------|-------------|--------------|-------------|
E  :--------------|-------------|--------------|-------------|
B  :--------------|-------------|--------------|-------------|
Gb :5-------------|-------------|1-----------1-|0------------|
B  :--0-0-0-0-0-0-|1-0-0-1-b4-1-|--0-0-0-0-0---|--0-0-1-b4-1-|

Db :--------------|-------------|--------------|-------------|
Ab :--------------|-------------|--------------|-------------|
E  :--------------|-------------|--------------|-------------|
B  :--------------|-------------|--------------|-------------|
Gb :5-------------|-------------|1-----------1-|0------------|
B  :--0-0-0-0-0-0-|1-0-0-1-b4-1-|--0-0-0-0-0---|--0-0-1-b4-1-|

E  :--------------|-------------|--------------|-------------|
B  :0-------------|-------------|--------------|-------------|
Gb :--------------|-------------|1-----------1-|0------------|
B  :--0---0-0-0-0-|1-0-0-0--0-0-|--0---0-0-0---|--0-0-0--0-0-|

Db :--------------|-------------|--------------|-------------|
Ab :--------------|-------------|--------------|-------------|
E  :--------------|-------------|--------------|-------------|
B  :--------------|-------------|--------------|-------------|
Gb :--------------|-------------|--------------|-------------|
B  :--------------|-------------|--------------|-------------|
                                                             

============================================================================

Db :--------------|-------------|------------|------------|--------------|
Ab :--------------|-------------|------------|------------|--------------|
E  :--------------|-------------|------------|------------|--------------|
B  :--------------|-------------|------------|------4-----|--------------|
Gb :5-------------|-------------|3-----------|5-------6-3-|5-------------|
B  :--0-0-0-0-0-0-|1-0-0-1-b4-1-|--0-0-0-0-0-|--0-0-------|--0-0-0-0-0-0-|

Db :--------------|-------------|------------|------------|--------------|
Ab :--------------|-------------|------------|------------|--------------|
E  :--------------|-------------|------------|------------|--------------|
B  :--------------|-------------|------------|------------|--------------|
Gb :1-------------|-------------|0-----------|1-----6-3-0-|1-------------|
B  :--0-0-0-0-0-0-|1-0-0-1-b4-1-|--0-0-0-0-0-|--0-0-------|--0-0-0-0-0-0-|

E  :--------------|-------------|------------|------------|--------------|
B  :--------------|-------------|--1---0-----|--------1---|0-------------|
Gb :5-------------|-------------|3---3---2---|------3---3-|--------------|
B  :--0---0-0-0-0-|1-0-0-0--0-0-|----------4-|0-0-0-------|--0---0-0-0-0-|

Db :--------------|-------------|------------|------------|--------------|
Ab :--------------|-------------|------------|------------|--------------|
E  :--------------|-------------|------------|------------|--------------|
B  :--------------|-------------|------------|------------|--------------|
Gb :--------------|-------------|------------|------------|--------------|
B  :--------------|-------------|------------|------------|--------------|
                                                                         

============================================================================

Db :-------------|---------------|------------|--------------|
Ab :-------------|---------------|------------|--------------|
E  :-------------|---------------|------------|--------------|
B  :-------------|---------------|------------|--------------|
Gb :-------------|1--------------|3-0---3-0-6-|------0-1-0---|
B  :1-0-0-1-b4-1-|--0-0-0-1-b4-1-|----4-------|4-5-0-------0-|

Db :-------------|---------------|------------|--------------|
Ab :-------------|---------------|------------|--------------|
E  :-------------|---------------|------------|--------------|
B  :-------------|---------------|----------4-|--------------|
Gb :-------------|---------------|6-3-0-6-3---|------0-1-0---|
B  :1-0-0-1-b4-1-|5-0-0-0-1-b4-1-|------------|4-5-0-------0-|

E  :-------------|---------------|------------|--------------|
B  :-------------|---------------|------------|--------------|
Gb :-------------|1--------------|3-0---3-0-6-|--------------|
B  :1-0-0-0--0-0-|--0---0-0--0-0-|----4-------|4-5-0-0---0-0-|

Db :-------------|---------------|------------|--------------|
Ab :-------------|---------------|------------|--------------|
E  :-------------|---------------|------------|--------------|
B  :-------------|---------------|------------|--------------|
Gb :-------------|---------------|------------|--------------|
B  :-------------|---------------|------------|--------------|
                                                             

============================================================================

Db :---------------|------------|------------|--------------|------------|
Ab :---------------|------------|------------|--------------|------------|
E  :----7-5-7-5----|--5---------|------------|--------------|------------|
B  :4-5----------8-|8-----7-5-4-|------------|--------------|------0---1-|
Gb :---------------|------------|6-----5-3-0-|------0-1-0---|1-3-1---0---|
B  :---------------|----0-------|--0-0-------|4-5-0-------0-|------------|

Db :---------------|------------|------------|--------------|------------|
Ab :---------------|------------|------------|--------------|------------|
E  :---------------|------------|------------|--------------|------------|
B  :----8-7-8-7----|5-7---4-----|------------|--------------|------4---5-|
Gb :5-6---------10-|--------6-5-|3-----1-0---|------0-1-0---|5-6-5---3---|
B  :---------------|----0-------|--0-0-----4-|4-5-0-------0-|------------|

E  :---------------|------------|------------|--------------|------------|
B  :----5----------|------------|------------|--------------|------------|
Gb :5-6------------|------------|3-----1-0---|--------------|5-6-5-------|
B  :------5---5--5-|7-5-0-0-0-0-|--0-0-----4-|4-5-0-0---0-0-|------0-0-0-|

Db :---------------|------------|------------|--------------|------------|
Ab :---------------|------------|------------|--------------|------------|
E  :---------------|------------|------------|--------------|------------|
B  :---------------|------------|------------|--------------|------------|
Gb :---------------|------------|------------|--------------|------------|
B  :---------------|------------|------------|--------------|------------|
                                                                         

============================================================================

Db :------------|------------|--------------|---------------|------------|
Ab :------------|------------|--------------|---------------|------------|
E  :------------|------------|--------------|----7-5-7-5----|--5---------|
B  :------------|------------|--------------|4-5----------8-|8-----7-5-4-|
Gb :5-----1-----|4-----------|------0-1-0---|---------------|------------|
B  :5-----1-----|4---*-------|4-5-0-------0-|---------------|----0-------|

Db :------------|------------|--------------|---------------|------------|
Ab :------------|------------|--------------|---------------|------------|
E  :------------|------------|--------------|---------------|------------|
B  :7---7-8---7-|4-----7-4---|--------------|----8-7-8-7----|5-7---4-----|
Gb :--6-----5---|--5-6-----6-|------0-1-0---|5-6---------10-|--------6-5-|
B  :------------|------------|4-5-0-------0-|---------------|----0-------|

E  :------------|------------|--------------|---------------|------------|
B  :------------|------------|--------------|----5----------|------------|
Gb :------------|----*-------|--------------|5-6------------|------------|
B  :5-----1-----|4-----------|4-5-0-0---0-0-|------5---5--5-|7-5-0-0-0-0-|

Db :------------|------------|--------------|---------------|------------|
Ab :------------|------------|--------------|---------------|------------|
E  :------------|------------|--------------|---------------|------------|
B  :------------|------------|--------------|---------------|------------|
Gb :------------|------------|--------------|---------------|------------|
B  :------------|------------|--------------|---------------|------------|
                                                                         

============================================================================

Db :------------|--------------|------------|------------|------------|
Ab :------------|--------------|------------|------------|------------|
E  :------------|--------------|------------|------------|------------|
B  :------------|--------------|------0---1-|------------|----------4-|
Gb :6-----5-3-0-|------0-1-0---|1-3-1---0---|5-----1-----|7-----------|
B  :--0-0-------|4-5-0-------0-|------------|5-----1-----|7-----8-7---|

Db :------------|--------------|------------|------------|------------|
Ab :------------|--------------|------------|------------|------------|
E  :------------|--------------|------------|------------|------------|
B  :------------|--------------|------4---5-|7---7-8---7-|4-----7-4---|
Gb :3-----1-0---|------0-1-0---|5-6-5---3---|--6-----5---|--5-6-----6-|
B  :--0-0-----4-|4-5-0-------0-|------------|------------|------------|

E  :------------|--------------|------------|------------|------------|
B  :------------|--------------|------------|------------|------------|
Gb :3-----1-0---|--------------|5-6-5-------|------------|0-----1-0---|
B  :--0-0-----4-|4-5-0-0---0-0-|------0-0-0-|5-----1-----|----------4-|

Db :------------|--------------|------------|------------|------------|
Ab :------------|--------------|------------|------------|------------|
E  :------------|--------------|------------|------------|------------|
B  :------------|--------------|------------|------------|------------|
Gb :------------|--------------|------------|------------|------------|
B  :------------|--------------|------------|------------|------------|
                                                                      

============================================================================

Db :------------------|------------|------------|------------------|
Ab :------------------|------------|------------|------------------|
E  :------------------|------------|------------|------------------|
B  :------------------|------------|------------|------------------|
Gb :0-0-0-0-0-0-0-----|------------|------------|0-0-0-0-0-0-0-----|
B  :0-0-0-0-0-0-0-*---|------------|------------|0-0-0-0-0-0-0-*---|

Db :------------------|------------|------------|------------------|
Ab :------------------|------------|------------|------------------|
E  :------------------|------------|------------|------------------|
B  :------------------|------------|------------|------------------|
Gb :0-0-0-0-0-0-0-----|------------|------------|0-0-0-0-0-0-0-----|
B  :0-0-0-0-0-0-0-*---|------------|------------|0-0-0-0-0-0-0-*---|

E  :------------------|------------|------------|------------------|
B  :------------------|------------|------------|------------------|
Gb :------------------|------------|0-----1-0---|------------------|
B  :8-----------0-----|5-----1-----|----------4-|8-----------0-----|

Db :------------------|------------|------------|------------------|
Ab :------------------|------------|------------|------------------|
E  :------------------|------------|------------|------------------|
B  :------------4---5-|7---7-8---7-|4-----7-4---|------------4---5-|
Gb :5---6---5-----3---|--6-----5---|--5-6-----6-|5---6---5-----3---|
B  :------------------|------------|------------|------------------|
                                                                   

============================================================================

Db :------------|------------|------------|------------|------------|
Ab :------------|------------|------------|------------|------------|
E  :------------|------------|------------|------------|------------|
B  :------------|0-----4-----|------0---1-|4---4-5---4-|0-----4-----|
Gb :------------|--1-3---6-3-|1-3-1---0---|--3-----1---|--1-3---6-3-|
B  :------------|------------|------------|------------|------------|

Db :------------|------------|------------|------------|------------|
Ab :------------|------------|------------|------------|------------|
E  :------------|------------|------------|------------|------------|
B  :------------|4-----7-4---|------4---5-|7---7-8---7-|4-----7-4---|
Gb :------------|--5-6-----6-|5-6-5---3---|--6-----5---|--5-6-----6-|
B  :------------|------------|------------|------------|------------|

E  :------------|------------|------------|------------|------------|
B  :------------|------------|------------|------------|------------|
Gb :------------|0-----1-0---|------------|------------|0-----1-0---|
B  :5-----1-----|----------4-|8-----0-----|5-----1-----|----------4-|

Db :------------|------------|------------|------------|------------|
Ab :------------|------------|------------|------------|------------|
E  :------------|------------|------------|------------|------------|
B  :7---7-8---7-|*-----------|------------|------------|------------|
Gb :--6-----5---|------------|------------|------------|------------|
B  :------------|------------|------------|------------|------------|
                                                                    

============================================================================

Db :------------|------------|------------|------------|------------|
Ab :------------|------------|------------|------------|------------|
E  :------------|------------|------------|------------|------------|
B  :------0---1-|4---4-5---4-|0-----4-----|0-----------|------------|
Gb :1-3-1---0---|--3-----1---|--1-3---6-3-|------------|------5-4-1-|
B  :------------|------------|------------|------------|------5-4-1-|

Db :------------|------------|------------|------------|------------|
Ab :------------|------------|------------|------------|------------|
E  :------------|------------|------------|------------|------------|
B  :------4---5-|7---7-8---7-|4-----7-4---|4-----------|------------|
Gb :5-6-5---3---|--6-----5---|--5-6-----6-|------------|------5-4-1-|
B  :------------|------------|------------|------------|------5-4-1-|

E  :------------|------------|------------|------------|------------|
B  :------------|------------|------------|------------|------------|
Gb :------------|------------|0-----1-0---|------------|------------|
B  :8-----0-----|5-----1-----|----------4-|0-----------|------5-4-1-|

Db :------------|------------|------------|------------|------------|
Ab :------------|------------|------------|------------|------------|
E  :------------|------------|------------|------------|------------|
B  :------------|------------|------------|------------|------------|
Gb :------------|------------|------------|------------|------------|
B  :------------|------------|------------|------------|------------|
                                                                    

============================================================================

Db :------------|--------------|------------|------------|------------|
Ab :------------|--------------|------------|------------|------------|
E  :------------|--------------|------------|------------|------------|
B  :------------|--------------|------4---4-|------7---7-|------------|
Gb :------6---6-|------0-1-0---|------------|------------|------6---6-|
B  :0-1-0---0---|0-1-5-------5-|0-1-0---1---|0-1-4---4---|0-1-0---0---|

Db :------------|--------------|------------|------------|------------|
Ab :------------|--------------|------------|------------|------------|
E  :------------|--------------|------------|------------|------------|
B  :------------|--------------|------4---4-|------7---7-|------------|
Gb :------6---6-|------0-1-0---|------------|------------|------6---6-|
B  :0-1-0---0---|0-1-5-------5-|0-1-0---1---|0-1-4---4---|0-1-0---0---|

E  :------------|--------------|------------|------------|------------|
B  :------------|--------------|------------|------------|------------|
Gb :------6---6-|------0-1-0---|------------|------------|------6---6-|
B  :0-1-0---0---|0-1-5-------5-|0-1-0-1-1-1-|0-1-4-4-4-4-|0-1-0---0---|

Db :------------|--------------|------------|------------|------------|
Ab :------------|--------------|------------|------------|------------|
E  :------------|--------------|------------|------------|------------|
B  :------------|--------------|------------|------------|------------|
Gb :------------|--------------|------------|------------|------------|
B  :------------|--------------|------------|------------|------------|
                                                                      

============================================================================

Db :--------------|------------|------------|------------|--------------|
Ab :--------------|------------|------------|------------|--------------|
E  :--------------|------------|------------|------------|--------------|
B  :--------------|------4---4-|------7---7-|------------|--------------|
Gb :------0-1-0---|------------|------------|------6---6-|------0-1-0---|
B  :0-1-5-------5-|0-1-0---1---|0-1-4---4---|0-1-0---0---|0-1-5-------5-|

Db :--------------|------------|------------|------------|--------------|
Ab :--------------|------------|------------|------------|--------------|
E  :--------------|------------|------------|------------|--------------|
B  :--------------|------4---4-|------7---7-|------------|--------------|
Gb :------0-1-0---|------------|------------|------6---6-|------0-1-0---|
B  :0-1-5-------5-|0-1-0---1---|0-1-4---4---|0-1-0---0---|0-1-5-------5-|

E  :--------------|------------|------------|------------|--------------|
B  :--------------|------------|------------|------------|--------------|
Gb :------0-1-0---|------------|------------|------6---6-|------0-1-0---|
B  :0-1-5-------5-|0-1-0-1-1-1-|0-1-4-4-4-4-|0-1-0---0---|0-1-5-------5-|

Db :--------------|------------|------------|------------|--------------|
Ab :--------------|------------|------------|------------|--------------|
E  :--------------|------------|------------|------------|--------------|
B  :--------------|------------|------------|------------|--------------|
Gb :--------------|------------|------------|------------|--------------|
B  :--------------|------------|------------|------------|--------------|
                                                                        

============================================================================

Db :------------|------------|------------|--------------|------------|
Ab :------------|------------|------------|--------------|------------|
E  :------------|------------|------------|--------------|------------|
B  :------4---4-|------7---7-|------------|--------------|------4---4-|
Gb :------------|------------|------6---6-|------0-1-0---|------------|
B  :0-1-0---1---|0-1-4---4---|0-1-0---0---|0-1-5-------5-|0-1-0---1---|

Db :------------|------------|------------|--------------|------------|
Ab :------------|------------|------------|--------------|------------|
E  :------------|------------|------------|--------------|------------|
B  :------4---4-|------7---7-|------------|--------------|------1---1-|
Gb :------------|------------|------6---6-|------0-1-0---|------------|
B  :0-1-0---1---|0-1-4---4---|0-1-0---0---|0-1-5-------5-|0-1-0---1---|

E  :------------|------------|------------|--------------|------------|
B  :------------|------------|------------|--------------|------------|
Gb :------------|------------|------6---6-|------0-1-0---|------------|
B  :0-1-0-1-1-1-|0-1-4-4-4-4-|0-1-0---0---|0-1-5-------5-|0-1-0-1-1-1-|

Db :------------|------------|------------|--------------|------------|
Ab :------------|------------|------------|--------------|------------|
E  :------------|------------|------------|--------------|------------|
B  :------------|------------|------------|--------------|------------|
Gb :------------|------------|------------|--------------|------------|
B  :------------|------------|------------|--------------|------------|
                                                                      

============================================================================

Db :------------|--------------|--------------|--------------|------------|
Ab :------------|--------------|--------------|--------------|------------|
E  :------------|--------------|--------------|--------------|------------|
B  :------7---7-|--------------|--------------|--7-5-4-5-4---|4-----------|
Gb :------------|5-------5---5-|-*------------|6-----------6-|--6-5-6-5-3-|
B  :0-1-4---4---|5-5-5-5-5---5-|--------------|--------------|------------|

Db :------------|--------------|--------------|--------------|------------|
Ab :------------|--------------|--------------|--------------|------------|
E  :------------|--------------|--------------|--------------|------------|
B  :------4---4-|--------8-5---|7-5-----------|--7-5-4-5-4---|4-----------|
Gb :------------|--------------|--------------|6-----------6-|--6-5-6-5-3-|
B  :0-1-4---4---|5-5-5-5-----5-|----5-5-5-5-5-|--------------|------------|

E  :------------|--------------|--------------|--------------|------------|
B  :------------|--------------|--------------|--------------|------------|
Gb :------------|--------------|--------------|--------------|------------|
B  :0-1-4-4-4-4-|5-5-5-5-5---5-|-*------------|7-7-7-7---7-7-|8-8-8-8-8-8-|

Db :------------|--------------|--------------|--------------|------------|
Ab :------------|--------------|--------------|--------------|------------|
E  :------------|--------------|--------------|--------------|------------|
B  :------------|--------------|--------------|--------------|------------|
Gb :------------|--------------|--------------|--------------|------------|
B  :------------|--------------|--------------|--------------|------------|
                                                                          

============================================================================

Db :------------|------------|------------|--------------|--------------|
Ab :------------|------------|------------|--------------|--------------|
E  :------------|------------|------------|--------------|--------------|
B  :------------|------------|------4-----|------4-5-4---|--------8-5---|
Gb :------5-1---|3-1---------|--6---------|--5-6-------6-|--------------|
B  :1-1-1-----1-|----1-1-1-1-|4---4---4-4-|4-------------|5-5-5-5-----5-|

Db :------------|------------|------------|--------------|--------------|
Ab :------------|------------|------------|--------------|--------------|
E  :------------|------------|------------|--------------|--------------|
B  :------------|------------|------4-----|------4-5-4---|--------8-5---|
Gb :------5-1---|3-1---------|--6---------|--5-6-------6-|--------------|
B  :1-1-1-----1-|----1-1-1-1-|4---4---4-4-|4-------------|5-5-5-5-----5-|

E  :------------|------------|------------|--------------|--------------|
B  :------------|------------|------------|--------------|--------------|
Gb :------------|------------|------------|--------------|--------------|
B  :1-1-1-1-1-1-|1-1-1-1-1-1-|7-7-7-7-7-7-|4-4-4-4---4-4-|5-5---5-5-5-5-|

Db :------------|------------|------------|--------------|--------------|
Ab :------------|------------|------------|--------------|--------------|
E  :------------|------------|------------|--------------|--------------|
B  :------------|------------|------------|--------------|--------------|
Gb :------------|------------|------------|--------------|--------------|
B  :------------|------------|------------|--------------|--------------|
                                                                        

============================================================================

Db :--------------|--------------|------------|------------|------------|
Ab :--------------|--------------|------------|------------|------------|
E  :--------------|--------------|------------|------------|------------|
B  :7-5-----------|--7-5-4-5-4---|4-----------|------------|------------|
Gb :--------------|6-----------6-|--6-5-6-5-3-|------5-1---|3-1---------|
B  :----5-5-5-5-5-|--------------|------------|1-1-1-----1-|----1-1-1-1-|

Db :--------------|--------------|------------|------------|------------|
Ab :--------------|--------------|------------|------------|------------|
E  :--------------|--------------|------------|------------|------------|
B  :7-5-----------|--7-5-4-5-4---|4-----------|------------|------------|
Gb :--------------|6-----------6-|--6-5-6-5-3-|------5-1---|3-1---------|
B  :----5-5-5-5-5-|--------------|------------|1-1-1-----1-|----1-1-1-1-|

E  :--------------|--------------|------------|------------|------------|
B  :--------------|--------------|------------|------------|------------|
Gb :--------------|--------------|------------|------------|------------|
B  :5-5-5-5-5---5-|7-7-7-7---7-7-|8-8-8-8-8-8-|1-1-1-1-1-1-|1-1-1-1-1-1-|

Db :--------------|--------------|------------|------------|------------|
Ab :--------------|--------------|------------|------------|------------|
E  :--------------|--------------|------------|------------|------------|
B  :--------------|--------------|------------|------------|------------|
Gb :--------------|--------------|------------|------------|------------|
B  :--------------|--------------|------------|------------|------------|
                                                                        

============================================================================

Db :------------|--------------|--------------|--------------|
Ab :------------|--------------|--------------|--------------|
E  :------------|--------------|--------------|--------------|
B  :------4-----|------4-5-4---|5-------------|--------------|
Gb :--6---------|--5-6-------6-|5-------------|--------------|
B  :4---4---4-4-|4-------------|5-------------|--------------|

Db :------------|--------------|--------------|--------------|
Ab :------------|--------------|--------------|--------------|
E  :------------|--------------|--------------|--------------|
B  :------4-----|------4-5-4---|5-------------|--------------|
Gb :--6---------|--5-6-------6-|5-------------|--------------|
B  :4---4---4-4-|4-------------|5-------------|--------------|

E  :------------|--------------|--------------|--------------|
B  :------------|--------------|--------------|--------------|
Gb :------------|--------------|--------------|--------------|
B  :7-7-7-7-7-7-|4-4-4-4---4-4-|5-------------|--------------|

Db :------------|--------------|--------------|--------------|
Ab :------------|--------------|--------------|--------------|
E  :------------|--------------|--------------|--------------|
B  :------------|--------------|--------8-5---|7-5-----------|
Gb :------------|--------------|--------------|--------------|
B  :------------|--------------|5-5-5-5-----5-|----5-5-5-5-5-|
                                                             

============================================================================

Db :--------------|------------|------------|------------|------------|
Ab :--------------|------------|------------|------------|------------|
E  :--------------|------------|------------|------------|2-----------|
B  :7-------------|8-----------|1-----------|------------|------------|
Gb :--------------|------------|1-----------|------------|------------|
B  :--------------|------------|1-----------|------------|------------|

Db :--------------|------------|------------|------------|------------|
Ab :--------------|------------|------------|------------|------------|
E  :--------------|------------|------------|------------|2-----------|
B  :7-------------|8-----------|1-----------|------------|------------|
Gb :--------------|------------|1-----------|------------|------------|
B  :--------------|------------|1-----------|------------|------------|

E  :--------------|------------|------------|------------|------------|
B  :--------------|------------|------------|------------|------------|
Gb :--------------|------------|------------|------------|------------|
B  :7-------------|8-----------|1-----------|------------|7-----------|

Db :--------------|------------|------------|------------|------------|
Ab :--------------|------------|------------|------------|------------|
E  :--------------|------------|------------|------------|------------|
B  :--7-5-4-5-4---|4-----------|------------|------------|------4-----|
Gb :6-----------6-|--6-5-6-5-3-|------5-1---|3-1---------|--6---------|
B  :--------------|------------|1-1-1-----1-|----1-1-1-1-|4---4---4-4-|
                                                                      

============================================================================

Db :--------------|--------------|--------------|--------------|
Ab :--------------|--------------|--------------|--------------|
E  :--------------|*-------------|--------------|--------------|
B  :4-------------|5-------------|--------------|7-------------|
Gb :--------------|5-------------|--------------|--------------|
B  :--------------|5-------------|--------------|--------------|

Db :--------------|--------------|--------------|--------------|
Ab :--------------|--------------|--------------|--------------|
E  :--------------|*-------------|--------------|--------------|
B  :4-------------|5-------------|--------------|7-------------|
Gb :--------------|5-------------|--------------|--------------|
B  :--------------|5-------------|--------------|--------------|

E  :--------------|--------------|--------------|--------------|
B  :--------------|--------------|--------------|--------------|
Gb :--------------|--------------|--------------|--------------|
B  :4-------------|5-------------|--------------|7-------------|

Db :--------------|--------------|--------------|--------------|
Ab :--------------|--------------|--------------|--------------|
E  :--------------|--------------|--------------|--------------|
B  :------4-5-4---|--------8-5---|7-5-----------|--7-5-4-5-4---|
Gb :--5-6-------6-|--------------|--------------|6-----------6-|
B  :4-------------|5-5-5-5-----5-|----5-5-5-5-5-|--------------|
                                                               

============================================================================

Db :------------|------------|------------|------------|--------------|
Ab :------------|------------|------------|------------|--------------|
E  :------------|------------|------------|2-----------|--------------|
B  :8-----------|1-----------|------------|------------|4-------------|
Gb :------------|1-----------|------------|------------|--------------|
B  :------------|1-----------|------------|------------|--------------|

Db :------------|------------|------------|------------|--------------|
Ab :------------|------------|------------|------------|--------------|
E  :------------|------------|------------|2-----------|--------------|
B  :8-----------|1-----------|------------|------------|4-------------|
Gb :------------|1-----------|------------|------------|--------------|
B  :------------|1-----------|------------|------------|--------------|

E  :------------|------------|------------|------------|--------------|
B  :------------|------------|------------|------------|--------------|
Gb :------------|------------|------------|------------|--------------|
B  :8-----------|1-----------|------------|7-----------|4-------------|

Db :------------|------------|------------|------------|--------------|
Ab :------------|------------|------------|------------|--------------|
E  :------------|------------|------------|------------|--------------|
B  :4-----------|------------|------------|------4-----|------4-5-4---|
Gb :--6-5-6-5-3-|------5-1---|3-1---------|--6---------|--5-6-------6-|
B  :------------|1-1-1-----1-|----1-1-1-1-|4---4---4-4-|4-------------|
                                                                      

============================================================================

Db :------------|------------|------------|------------|------------|
Ab :------------|------------|------------|------------|------------|
E  :*-----------|------------|------------|------------|------------|
B  :5-----------|------------|7-----------|8-----------|1-----------|
Gb :5-----------|------------|------------|------------|1-----------|
B  :5-----------|------------|------------|------------|1-----------|

Db :------------|------------|------------|------------|------------|
Ab :------------|------------|------------|------------|------------|
E  :*-----------|------------|------------|------------|------------|
B  :5-----------|------------|7-----------|8-----------|1-----------|
Gb :5-----------|------------|------------|------------|1-----------|
B  :5-----------|------------|------------|------------|1-----------|

E  :------------|------------|------------|------------|------------|
B  :------------|------------|------------|------------|------------|
Gb :------------|------------|------------|------------|------------|
B  :5-----------|------------|7-----------|8-----------|1-----------|

Db :------------|------------|------------|------------|------------|
Ab :------------|------------|------------|------------|------------|
E  :------------|------------|------------|------------|------------|
B  :------------|------------|------------|------------|------------|
Gb :------------|------------|------------|------------|------------|
B  :*-----------|------------|------------|------------|------------|
                                                                    

============================================================================

Db :------------|------------|------------|------------|------------|
Ab :------------|------------|------------|------------|------------|
E  :------------|2-----------|------------|*-----------|------------|
B  :------------|------------|4-----------|5-----------|------------|
Gb :------------|------------|------------|5-----------|------------|
B  :------------|------------|------------|5-----------|------------|

Db :------------|------------|------------|------------|------------|
Ab :------------|------------|------------|------------|------------|
E  :------------|2-----------|------------|*-----------|------------|
B  :------------|------------|4-----------|5-----------|------------|
Gb :------------|------------|------------|5-----------|------------|
B  :------------|------------|------------|5-----------|------------|

E  :------------|------------|------------|------------|------------|
B  :------------|------------|------------|------------|------------|
Gb :------------|------------|------------|------------|------------|
B  :------------|7-----------|4-----------|5-----------|------------|

Db :------------|------------|------------|------------|------------|
Ab :------------|------------|------------|------------|------------|
E  :------------|------------|------------|------------|------------|
B  :------------|------------|------------|------------|------------|
Gb :------------|------------|------------|------------|------------|
B  :------------|------------|------------|------------|------------|
                                                                    

============================================================================

Db :------------|------------|------------|------------|------------|
Ab :------------|------------|------------|------------|------------|
E  :------------|------------|------------|------------|2-----------|
B  :7-----------|8-----------|1-----------|------------|------------|
Gb :------------|------------|1-----------|------------|------------|
B  :------------|------------|1-----------|------------|------------|

Db :------------|------------|------------|------------|------------|
Ab :------------|------------|------------|------------|------------|
E  :------------|------------|------------|------------|2-----------|
B  :7-----------|8-----------|1-----------|------------|------------|
Gb :------------|------------|1-----------|------------|------------|
B  :------------|------------|1-----------|------------|------------|

E  :------------|------------|------------|------------|------------|
B  :------------|------------|------------|------------|------------|
Gb :------------|------------|------------|------------|------------|
B  :7-----------|8-----------|1-----------|------------|7-----------|

Db :------------|------------|------------|------------|------------|
Ab :------------|------------|------------|------------|------------|
E  :------------|------------|------------|------------|------------|
B  :------------|------------|------------|------------|------------|
Gb :------------|------------|------------|------------|------------|
B  :------------|------------|------------|------------|------------|
                                                                    

============================================================================

Db :---------------|-----------------------------------|
Ab :---------------|-----------------------------------|
E  :---------------|-----------------------------------|
B  :4--------------|-----------------------------------|
Gb :---------------|-5---------------------------------|
B  :---------------|-5-----5--5--5-----8-----7-----8---|

Db :---------------|-----------------------------------|
Ab :---------------|-----------------------------------|
E  :---------------|-----------------------------------|
B  :4--------------|-----------------------------------|
Gb :---------------|-5---------------------------------|
B  :---------------|-5-----5--5--5-----8-----7-----8---|

E  :---------------|-----------------------------------|
B  :---------------|-----------------------------------|
Gb :---------------|-----------------------------------|
B  :4--------------|-5-----5-----5-----8-----7-----8---|

Db :---------------|-----------------------------------|
Ab :---------------|-----------------------------------|
E  :------------11-|12-12-12-12-12-12-12-12-12-12-12-12|
B  :------12-13----|-----------------------------------|
Gb :---------------|-----------------------------------|
B  :---------------|-----------------------------------|
                                                       

============================================================================

Db :-----------------------------------|-----------------------------------|
Ab :-----------------------------------|-----------------------------------|
E  :-----------------------------------|-----------------------------------|
B  :-----------------------------------|-----------------------------------|
Gb :-5-----------------------------5---|-6---------------------------------|
B  :-5-----5--5--5-----8-----7---------|-------8-----7-----5-----7-----8---|

Db :-----------------------------------|-----------------------------------|
Ab :-----------------------------------|-----------------------------------|
E  :-----------------------------------|-----------------------------------|
B  :-----------------------------------|-----------------------------------|
Gb :-5-----------------------------5---|-6---------------------------------|
B  :-5-----5--5--5-----8-----7---------|-------8-----7-----5-----7-----8---|

E  :-----------------------------------|-----------------------------------|
B  :-----------------------------------|-----------------------------------|
Gb :-----------------------------------|-----------------------------------|
B  :-5-----5-----5-----8-----7-----0---|-1-----1-----1-----1-----1-----1---|

Db :-----------------------------------|-----------------------------------|
Ab :-----------------------------------|-----------------------------------|
E  :12-12-12-12-12-12-12-12-12-12-12-12|14-14-14-14-14-14-14-14-14-14-14-14|
B  :-----------------------------------|-----------------------------------|
Gb :-----------------------------------|-----------------------------------|
B  :-----------------------------------|-----------------------------------|
                                                                           

============================================================================

Db :-----------------------------------|-----------------------------------|
Ab :-----------------------------------|-----------------------------------|
E  :-----------------------------------|-----------------------------------|
B  :-------------------------------7---|-----------------------------------|
Gb :-6-----------------9---------------|-5---------------------------------|
B  :-------8-----7-----------8---------|-5-----5--5--5-----8-----7-----8---|

Db :-----------------------------------|-----------------------------------|
Ab :-----------------------------------|-----------------------------------|
E  :-----------------------------------|-----------------------------------|
B  :-------------------------------7---|-----------------------------------|
Gb :-6-----------------9---------------|-5---------------------------------|
B  :-------8-----7-----------8---------|-5-----5--5--5-----8-----7-----8---|

E  :-----------------------------------|-----------------------------------|
B  :-----------------------------------|-----------------------------------|
Gb :-----------------------------------|-----------------------------------|
B  :-0-----0-----0-----0-----0-----0---|-5-----5-----5-----8-----7-----8---|

Db :-----------------------------------|-----------------------------------|
Ab :-----------------------------------|-----------------------------------|
E  :15-15-15-15-15-15-15-15-15-15-15-15|-----------------------------------|
B  :-----------------------------------|13-13-13-13-13-13-13-13-13-13-13-13|
Gb :-----------------------------------|-----------------------------------|
B  :-----------------------------------|-----------------------------------|
                                                                           

============================================================================

Db :-----------------------------------|-----------------------------------|
Ab :-----------------------------------|-----------------------------------|
E  :-----------------------------------|-----------------------------------|
B  :-----------------------------------|-----------------------------------|
Gb :-5-----------------------------5---|-6-----------------------------5---|
B  :-5-----5--5--5-----8-----7---------|-------8-----7-----4-----7---------|

Db :-----------------------------------|-----------------------------------|
Ab :-----------------------------------|-----------------------------------|
E  :-----------------------------------|-----------------------------------|
B  :-----------------------------------|-----------------------------------|
Gb :-5-----------------------------5---|-6-----------------------------5---|
B  :-5-----5--5--5-----8-----7---------|-------8-----7-----4-----7---------|

E  :-----------------------------------|-----------------------------------|
B  :-----------------------------------|-----------------------------------|
Gb :-----------------------------------|-----------------------------------|
B  :-5-----5-----5-----8-----7-----0---|-1-----1-----1-----1-----1-----1---|

Db :-----------------------------------|-----------------------------------|
Ab :-----------------------------------|-----------------------------------|
E  :-----------------------------------|14-14-14-14-14-14-14-14-14-14-14-14|
B  :13-13-13-13-13-13-13-13-13-13-13-13|-----------------------------------|
Gb :-----------------------------------|-----------------------------------|
B  :-----------------------------------|-----------------------------------|
                                                                           

============================================================================

Db :-----------------------------------|-----------------------------------|
Ab :-----------------------------------|-----------------------------------|
E  :-----------------------------------|-----------------------------------|
B  :-----------------------------------|-----------------------------------|
Gb :-3---------------------------------|-5---------------------------------|
B  :-------4-----0-----1-----0-----4---|-5-----5--5--5-----8-----7-----8---|

Db :-----------------------------------|-----------------------------------|
Ab :-----------------------------------|-----------------------------------|
E  :-----------------------------------|-----------------------------------|
B  :-----------------------------------|-----------------------------------|
Gb :-3---------------------------------|-5---------------------------------|
B  :-------4-----0-----1-----0-----4---|-5-----5--5--5-----8-----7-----8---|

E  :-----------------------------------|-----------------------------------|
B  :-----------------------------------|-----------------------------------|
Gb :-----------------------------------|-----------------------------------|
B  :-4-----4-----4-----4-----4-----4---|-5-----5-----5-----8-----7-----8---|

Db :-----------------------------------|-----------------------------------|
Ab :-----------------------------------|-----------------------------------|
E  :11-11-11-11-11-11-11-11-11-11-11-11|12-12-12-12-12-12-12-12-12-12-12-12|
B  :-----------------------------------|-----------------------------------|
Gb :-----------------------------------|-----------------------------------|
B  :-----------------------------------|-----------------------------------|
                                                                           

============================================================================

Db :-----------------------------------|-----------------------------------|
Ab :-----------------------------------|-----------------------------------|
E  :-----------------------------------|-----------------------------------|
B  :-----------------------------------|-----------------------------------|
Gb :-5-----------------------------5---|-6---------------------------------|
B  :-5-----5--5--5-----8-----7---------|-------8-----7-----5-----7-----8---|

Db :-----------------------------------|-----------------------------------|
Ab :-----------------------------------|-----------------------------------|
E  :-----------------------------------|-----------------------------------|
B  :-----------------------------------|-----------------------------------|
Gb :-5-----------------------------5---|-6---------------------------------|
B  :-5-----5--5--5-----8-----7---------|-------8-----7-----5-----7-----8---|

E  :-----------------------------------|-----------------------------------|
B  :-----------------------------------|-----------------------------------|
Gb :-----------------------------------|-----------------------------------|
B  :-5-----5-----5-----8-----7-----0---|-1-----1-----1-----1-----1-----1---|

Db :-----------------------------------|-----------------------------------|
Ab :-----------------------------------|-----------------------------------|
E  :12-12-12-12-12-12-12-12-12-12-12-12|14-14-14-14-14-14-14-14-14-14-14-14|
B  :-----------------------------------|-----------------------------------|
Gb :-----------------------------------|-----------------------------------|
B  :-----------------------------------|-----------------------------------|
                                                                           

============================================================================

Db :-----------------------------------|-----------------------------------|
Ab :-----------------------------------|-----------------------------------|
E  :-----------------------------------|-----------------------------------|
B  :-------------------------------7---|-----------------------------------|
Gb :-6-----------------9---------------|-5---------------------------------|
B  :-------8-----7-----------8---------|-5-----5--5--5-----8-----7-----8---|

Db :-----------------------------------|-----------------------------------|
Ab :-----------------------------------|-----------------------------------|
E  :-----------------------------------|-----------------------------------|
B  :-------------------------------7---|-----------------------------------|
Gb :-6-----------------9---------------|-5---------------------------------|
B  :-------8-----7-----------8---------|-5-----5--5--5-----8-----7-----8---|

E  :-----------------------------------|-----------------------------------|
B  :-----------------------------------|-----------------------------------|
Gb :-----------------------------------|-----------------------------------|
B  :-0-----0-----0-----0-----0-----0---|-5-----5-----5-----8-----7-----8---|

Db :-----------------------------------|-----------------------------------|
Ab :-----------------------------------|-----------------------------------|
E  :15-15-15-15-15-15-15-15-15-15-15-15|20-20-20-20-20-20-20-20-20-20-20-20|
B  :-----------------------------------|-----------------------------------|
Gb :-----------------------------------|-----------------------------------|
B  :-----------------------------------|-----------------------------------|
                                                                           

============================================================================

Db :-----------------------------------|-----------------------------------|
Ab :-----------------------------------|-----------------------------------|
E  :-----------------------------------|-----------------------------------|
B  :-----------------------------------|-----------------------------------|
Gb :-5-----------------------------5---|-6-----------------------------5---|
B  :-5-----5--5--5-----8-----7---------|-------8-----7-----4-----7---------|

Db :-----------------------------------|-----------------------------------|
Ab :-----------------------------------|-----------------------------------|
E  :-----------------------------------|-----------------------------------|
B  :-----------------------------------|-----------------------------------|
Gb :-5-----------------------------5---|-6-----------------------------5---|
B  :-5-----5--5--5-----8-----7---------|-------8-----7-----4-----7---------|

E  :-----------------------------------|-----------------------------------|
B  :-----------------------------------|-----------------------------------|
Gb :-----------------------------------|-----------------------------------|
B  :-5-----5-----5-----8-----7-----0---|-1-----1-----1-----1-----1-----1---|

Db :-----------------------------------|-----------------------------------|
Ab :-----------------------------------|-----------------------------------|
E  :20-20-20-20-20-20-20-20-20-20-20-20|19-19-19-19-19-19-19-19-19-19-19-19|
B  :-----------------------------------|-----------------------------------|
Gb :-----------------------------------|-----------------------------------|
B  :-----------------------------------|-----------------------------------|
                                                                           

============================================================================

Db :-------------|--------------------|----------------------------|
Ab :-------------|--------------------|----------------------------|
E  :-------------|--------------------|----------------------------|
B  :-------------|--------------------|----------------------------|
Gb :-3-----------|-5------------------|-5----------------------5---|
B  :---4-0-1-0-4-|-5--5-5--5--8--7--8-|-5--5-5--5--8-----7---------|

Db :-------------|--------------------|----------------------------|
Ab :-------------|--------------------|----------------------------|
E  :-------------|--------------------|----------------------------|
B  :-------------|--------------------|----------------------------|
Gb :-3-----------|-5------------------|-5----------------------5---|
B  :---4-0-1-0-4-|-5--5-5--5--8--7--8-|-5--5-5--5--8-----7---------|

E  :-------------|--------------------|----------------------------|
B  :-------------|--------------------|----------------------------|
Gb :-------------|--------------------|----------------------------|
B  :-4-4-4-4-4-4-|-5--5----5--8--7--8-|-5--5----5--8-----7-----0---|

Db :-------------|18-15------17-15----|---17---15-14-15-14---------|
Ab :-------------|--------15-------15-|16------------------16-15-13|
E  :19-----*-----|--------------------|----------------------------|
B  :-------------|--------------------|----------------------------|
Gb :-------------|--------------------|----------------------------|
B  :-------------|--------------------|----------------------------|
                                                                   

============================================================================

Db :------------------|------------------|----------------|----------------|
Ab :------------------|------------------|----------------|----------------|
E  :------------------|------------------|----------------|----------------|
B  :------------------|----------------7-|----------------|----------------|
Gb :-6----------------|-6--------9-------|--5-------------|--5-----------5-|
B  :----8--7--5--7--8-|----8--7-----8----|--5-5-5-5-8-7-8-|--5-5-5-5-8-7---|

Db :------------------|------------------|----------------|----------------|
Ab :------------------|------------------|----------------|----------------|
E  :------------------|------------------|----------------|----------------|
B  :------------------|----------------7-|----------------|----------------|
Gb :-6----------------|-6--------9-------|--5-------------|--5-----------5-|
B  :----8--7--5--7--8-|----8--7-----8----|--5-5-5-5-8-7-8-|--5-5-5-5-8-7---|

E  :------------------|------------------|----------------|----------------|
B  :------------------|------------------|----------------|----------------|
Gb :------------------|------------------|----------------|----------------|
B  :-1--1--1--1--1--1-|-0--0--0--0--0--0-|--5-5---5-8-7-8-|--5-5---5-8-7-0-|

Db :---------14-------|14-------14----17-|----------------|----------------|
Ab :13-15-16----16-15-|---16-15----16----|----------------|----------------|
E  :------------------|------------------|t12-------------|/15-------------|
B  :------------------|------------------|----------------|----------------|
Gb :------------------|------------------|----------------|----------------|
B  :------------------|------------------|----------------|----------------|
                                                                           

============================================================================

Db :--------------|--------------|----------------|---------------|
Ab :--------------|--------------|----------------|---------------|
E  :--------------|--------------|----------------|---------------|
B  :--------------|--------------|----------------|---------------|
Gb :--6---------5-|--3-----------|--5-------------|-5-----------5-|
B  :----8-7-4-7---|----4-0-1-0-4-|--5-5-5-5-8-7-8-|-5-5-5-5-8-7---|

Db :--------------|--------------|----------------|---------------|
Ab :--------------|--------------|----------------|---------------|
E  :--------------|--------------|----------------|---------------|
B  :--------------|--------------|----------------|---------------|
Gb :--6---------5-|--3-----------|--5-------------|-5-----------5-|
B  :----8-7-4-7---|----4-0-1-0-4-|--5-5-5-5-8-7-8-|-5-5-5-5-8-7---|

E  :--------------|--------------|----------------|---------------|
B  :--------------|--------------|----------------|---------------|
Gb :--------------|--------------|----------------|---------------|
B  :--1-1-1-1-1-1-|--4-4-4-4-4-4-|--5-5---5-8-7-8-|-5-5---5-8-7-0-|

Db :--------------|--------------|----------------|---------------|
Ab :t16-----------|/19-----------|p15-------------|15-------------|
E  :--------------|--------------|----------------|---------------|
B  :--------------|--------------|----------------|---------------|
Gb :--------------|--------------|----------------|---------------|
B  :--------------|--------------|----------------|---------------|
                                                                  

============================================================================

Db :------------------|----------------|--------------------|
Ab :------------------|----------------|--------------------|
E  :------------------|----------------|--------------------|
B  :------------------|------------7---|--------------------|
Gb :-6----------------|-6-----9--------|-5------------------|
B  :----8--7--5--7--8-|---8-7---8------|-5--5-5--5--8--7--8-|

Db :------------------|----------------|--------------------|
Ab :------------------|----------------|--------------------|
E  :------------------|----------------|--------------------|
B  :------------------|------------7---|--------------------|
Gb :-6----------------|-6-----9--------|-5------------------|
B  :----8--7--5--7--8-|---8-7---8------|-5--5-5--5--8--7--8-|

E  :------------------|----------------|--------------------|
B  :------------------|----------------|--------------------|
Gb :------------------|----------------|--------------------|
B  :-1--1--1--1--1--1-|-0-0-0-0-0--0---|-5--5----5--8--7--8-|

Db :------------------|-----------15-17|18-15------17-15----|
Ab :16-13-13-15-11-13-|10--------------|--------15-------15-|
E  :------------------|----------------|--------------------|
B  :------------------|----------------|--------------------|
Gb :------------------|----------------|--------------------|
B  :------------------|----------------|--------------------|
                                                            

============================================================================

Db :----------------------------|------------------|------------------|
Ab :----------------------------|------------------|------------------|
E  :----------------------------|------------------|------------------|
B  :----------------------------|------------------|------------------|
Gb :-5----------------------5---|-6--------------5-|-3----------------|
B  :-5--5-5--5--8-----7---------|----8--7--4--7----|----4--0--1--0--4-|

Db :----------------------------|------------------|------------------|
Ab :----------------------------|------------------|------------------|
E  :----------------------------|------------------|------------------|
B  :----------------------------|------------------|------------------|
Gb :-5----------------------5---|-6--------------5-|-3----------------|
B  :-5--5-5--5--8-----7---------|----8--7--4--7----|----4--0--1--0--4-|

E  :----------------------------|------------------|------------------|
B  :----------------------------|------------------|------------------|
Gb :----------------------------|------------------|------------------|
B  :-5--5----5--8-----7-----0---|-1--1--1--1--1--1-|-4--4--4--4--4--4-|

Db :---17---15-14-15-14-15-17-18|20-17-------------|20-17----23-20----|
Ab :16--------------------------|------19----------|------19-------22-|
E  :----------------------------|---------20-17----|------------------|
B  :----------------------------|---------------19-|------------------|
Gb :----------------------------|------------------|------------------|
B  :----------------------------|------------------|------------------|
                                                                      

============================================================================

Db :-----------------|-----------------|------------|------------|
Ab :-----------------|-----------------|------------|------------|
E  :-----------------|-----7--5-7-5----|--5---------|------------|
B  :-----------------|4--5-----------8-|8-----7-5-4-|------------|
Gb :--------0-1-0----|-----------------|------------|6-----5-3-0-|
B  :-4-5-0---------0-|-----------------|----0-------|--0-0-------|

Db :-----------------|-----------------|------------|------------|
Ab :-----------------|-----------------|------------|------------|
E  :-----------------|-----------------|------------|------------|
B  :-----------------|-----8--7-8-7----|5-7---4-----|------------|
Gb :--------0-1-0----|5--6----------10-|--------6-5-|3-----1-0---|
B  :-4-5-0---------0-|-----------------|----0-------|--0-0-----4-|

E  :-----------------|-----------------|------------|------------|
B  :-----------------|-----5-----------|------------|------------|
Gb :-----------------|5--6-------------|------------|3-----1-0---|
B  :-4-5-0--0---0--0-|--------5---5--5-|7-5-0-0-0-0-|--0-0-----4-|

Db :24-----24-----24-|--24---24------*-|------------|------------|
Ab :-----------------|-----------------|------------|------------|
E  :-----------------|-----------------|------------|------------|
B  :-----------------|-----------------|------------|------------|
Gb :-----------------|-----------------|------------|------------|
B  :-----------------|-----------------|------------|------------|
                                                                 

============================================================================

Db :--------------|------------|------------|------------|--------------|
Ab :--------------|------------|------------|------------|--------------|
E  :--------------|------------|------------|------------|--------------|
B  :--------------|------0---1-|------------|------------|--------------|
Gb :------0-1-0---|1-3-1---0---|5-----1-----|4-----------|------0-1-0---|
B  :4-5-0-------0-|------------|5-----1-----|4---*-------|4-5-0-------0-|

Db :--------------|------------|------------|------------|--------------|
Ab :--------------|------------|------------|------------|--------------|
E  :--------------|------------|------------|------------|--------------|
B  :--------------|------4---5-|7---7-8---7-|4-----7-4---|--------------|
Gb :------0-1-0---|5-6-5---3---|--6-----5---|--5-6-----6-|------0-1-0---|
B  :4-5-0-------0-|------------|------------|------------|4-5-0-------0-|

E  :--------------|------------|------------|------------|--------------|
B  :--------------|------------|------------|------------|--------------|
Gb :--------------|5-6-5-------|------------|----*-------|--------------|
B  :4-5-0-0---0-0-|------0-0-0-|5-----1-----|4-----------|4-5-0-0---0-0-|

Db :--------------|------------|------------|------------|--------------|
Ab :--------------|------------|------------|------------|--------------|
E  :--------------|------------|------------|------------|--------------|
B  :--------------|------------|------------|------------|--------------|
Gb :--------------|------------|------------|------------|--------------|
B  :--------------|------------|------------|------------|--------------|
                                                                        

============================================================================

Db :---------------|------------|------------|--------------|------------|
Ab :---------------|------------|------------|--------------|------------|
E  :----7-5-7-5----|--5---------|------------|--------------|------------|
B  :4-5----------8-|8-----7-5-4-|------------|--------------|------0---1-|
Gb :---------------|------------|6-----5-3-0-|------0-1-0---|1-3-1---0---|
B  :---------------|----0-------|--0-0-------|4-5-0-------0-|------------|

Db :---------------|------------|------------|--------------|------------|
Ab :---------------|------------|------------|--------------|------------|
E  :---------------|------------|------------|--------------|------------|
B  :----8-7-8-7----|5-7---4-----|------------|--------------|------4---5-|
Gb :5-6---------10-|--------6-5-|3-----1-0---|------0-1-0---|5-6-5---3---|
B  :---------------|----0-------|--0-0-----4-|4-5-0-------0-|------------|

E  :---------------|------------|------------|--------------|------------|
B  :----5----------|------------|------------|--------------|------------|
Gb :5-6------------|------------|3-----1-0---|--------------|5-6-5-------|
B  :------5---5--5-|7-5-0-0-0-0-|--0-0-----4-|4-5-0-0---0-0-|------0-0-0-|

Db :---------------|------------|------------|--------------|------------|
Ab :---------------|------------|------------|--------------|------------|
E  :---------------|------------|------------|--------------|------------|
B  :---------------|------------|------------|--------------|------------|
Gb :---------------|------------|------------|--------------|------------|
B  :---------------|------------|------------|--------------|------------|
                                                                         

============================================================================

Db :------------|------------|------------|------------|------------|
Ab :------------|------------|------------|------------|------------|
E  :------------|------------|------------|------------|------------|
B  :------------|------------|------------|------------|------------|
Gb :5-----1-----|7---------9-|5---*-------|------------|1-----------|
B  :5-----1-----|7-----8-7---|5-----------|------------|1---*-------|

Db :------------|------------|------------|------------|------------|
Ab :------------|------------|------------|------------|------------|
E  :------------|------------|------------|------------|------------|
B  :7---7-8---7-|4-----7-4---|------4---5-|7---7-4-----|------------|
Gb :--6-----5---|--5-6-----6-|5-6-5---3---|--6-----6-5-|1-----------|
B  :------------|------------|------------|------------|1---*-------|

E  :------------|------------|------------|------------|------------|
B  :------------|------------|------------|------------|--------1---|
Gb :------------|0-----1-0---|------------|------------|------3---3-|
B  :5-----1-----|----------4-|5---*-------|------------|1-0-4-------|

Db :------------|------------|------------|------------|------------|
Ab :------------|------------|------------|------------|------------|
E  :------------|------------|------------|------------|------------|
B  :------------|------------|------------|------------|------------|
Gb :------------|------------|------------|------------|------------|
B  :------------|------------|------------|------------|------------|
                                                                    

============================================================================

Db :------------|--------------|--------------|--------------|------------|
Ab :------------|--------------|--------------|--------------|------------|
E  :------------|--------------|--------------|--------------|------------|
B  :------------|5-------------|--------------|7-------------|8-----------|
Gb :------0-1-4-|5-------------|--------------|--------------|------------|
B  :------0-1-4-|5-------------|--------------|--------------|------------|

Db :------------|--------------|--------------|--------------|------------|
Ab :------------|--------------|--------------|--------------|------------|
E  :------------|--------------|--------------|--------------|------------|
B  :------------|5-------------|--------------|7-------------|8-----------|
Gb :------0-1-4-|5-------------|--------------|--------------|------------|
B  :------0-1-4-|5-------------|--------------|--------------|------------|

E  :------------|--------------|--------------|--------------|------------|
B  :0-----------|--------------|--------------|--------------|------------|
Gb :--2---------|--------------|--------------|--------------|------------|
B  :----4-0-1-4-|5-------------|--------------|7-------------|8-----------|

Db :------------|--------------|--------------|--------------|------------|
Ab :------------|--------------|--------------|--------------|------------|
E  :------------|--------------|--------------|--------------|------------|
B  :------------|--------8-5---|7-5-----------|--7-5-4-5-4---|4-----------|
Gb :------------|--------------|--------------|6-----------6-|--6-5-6-5-3-|
B  :------------|5-5-5-5-----5-|----5-5-5-5-5-|--------------|------------|
                                                                          

============================================================================

Db :------------|------------|------------|--------------|--------------|
Ab :------------|------------|------------|--------------|--------------|
E  :------------|------------|2-----------|--------------|*-------------|
B  :1-----------|------------|------------|4-------------|5-------------|
Gb :1-----------|------------|------------|--------------|5-------------|
B  :1-----------|------------|------------|--------------|5-------------|

Db :------------|------------|------------|--------------|--------------|
Ab :------------|------------|------------|--------------|--------------|
E  :------------|------------|2-----------|--------------|*-------------|
B  :1-----------|------------|------------|4-------------|5-------------|
Gb :1-----------|------------|------------|--------------|5-------------|
B  :1-----------|------------|------------|--------------|5-------------|

E  :------------|------------|------------|--------------|--------------|
B  :------------|------------|------------|--------------|--------------|
Gb :------------|------------|------------|--------------|--------------|
B  :1-----------|------------|7-----------|4-------------|5-------------|

Db :------------|------------|------------|--------------|--------------|
Ab :------------|------------|------------|--------------|--------------|
E  :------------|------------|------------|--------------|--------------|
B  :------------|------------|------4-----|------4-5-4---|--------8-5---|
Gb :------5-1---|3-1---------|--6---------|--5-6-------6-|--------------|
B  :1-1-1-----1-|----1-1-1-1-|4---4---4-4-|4-------------|5-5-5-5-----5-|
                                                                        

============================================================================

Db :--------------|--------------|------------|------------|------------|
Ab :--------------|--------------|------------|------------|------------|
E  :--------------|--------------|------------|------------|------------|
B  :--------------|7-------------|8-----------|1-----------|------------|
Gb :--------------|--------------|------------|1-----------|------------|
B  :--------------|--------------|------------|1-----------|------------|

Db :--------------|--------------|------------|------------|------------|
Ab :--------------|--------------|------------|------------|------------|
E  :--------------|--------------|------------|------------|------------|
B  :--------------|7-------------|8-----------|1-----------|------------|
Gb :--------------|--------------|------------|1-----------|------------|
B  :--------------|--------------|------------|1-----------|------------|

E  :--------------|--------------|------------|------------|------------|
B  :--------------|--------------|------------|------------|------------|
Gb :--------------|--------------|------------|------------|------------|
B  :--------------|7-------------|8-----------|1-----------|------------|

Db :--------------|--------------|------------|------------|------------|
Ab :--------------|--------------|------------|------------|------------|
E  :--------------|--------------|------------|------------|------------|
B  :7-5-----------|--7-5-4-5-4---|4-----------|------------|------------|
Gb :--------------|6-----------6-|--6-5-6-5-3-|------5-1---|3-1---------|
B  :----5-5-5-5-5-|--------------|------------|1-1-1-----1-|----1-1-1-1-|
                                                                        

============================================================================

Db :------------|--------------|------------|------------|------------|
Ab :------------|--------------|------------|------------|------------|
E  :2-----------|--------------|*-----------|------------|------------|
B  :------------|4-------------|5-----------|------------|7-----------|
Gb :------------|--------------|5-----------|------------|------------|
B  :------------|--------------|5-----------|------------|------------|

Db :------------|--------------|------------|------------|------------|
Ab :------------|--------------|------------|------------|------------|
E  :2-----------|--------------|*-----------|------------|------------|
B  :------------|4-------------|5-----------|------------|7-----------|
Gb :------------|--------------|5-----------|------------|------------|
B  :------------|--------------|5-----------|------------|------------|

E  :------------|--------------|------------|------------|------------|
B  :------------|--------------|------------|------------|------------|
Gb :------------|--------------|------------|------------|------------|
B  :7-----------|4-------------|5-----------|------------|------------|

Db :------------|--------------|------------|------------|------------|
Ab :------------|--------------|------------|------------|------------|
E  :------------|--------------|------------|------------|------------|
B  :------4-----|------4-5-4---|------------|------------|------------|
Gb :--6---------|--5-6-------6-|*-----------|------------|------------|
B  :4---4---4-4-|4-------------|------------|------------|------------|
                                                                      

============================================================================

Db :------------|------------|------------|------------|------------|
Ab :------------|------------|------------|------------|------------|
E  :------------|------------|------------|2-----------|------------|
B  :8-----------|1-----------|------------|------------|4-----------|
Gb :------------|1-----------|------------|------------|------------|
B  :------------|1-----------|------------|------------|------------|

Db :------------|------------|------------|------------|------------|
Ab :------------|------------|------------|------------|------------|
E  :------------|------------|------------|2-----------|------------|
B  :8-----------|1-----------|------------|------------|4-----------|
Gb :------------|1-----------|------------|------------|------------|
B  :------------|1-----------|------------|------------|------------|

E  :------------|------------|------------|------------|------------|
B  :------------|------------|------------|------------|------------|
Gb :------------|------------|------------|------------|------------|
B  :------------|------------|------------|------------|------------|

Db :------------|------------|------------|------------|------------|
Ab :------------|------------|------------|------------|------------|
E  :------------|------------|------------|------------|------------|
B  :------------|------------|------------|------------|------------|
Gb :------------|------------|------------|------------|------------|
B  :------------|------------|------------|------------|------------|
                                                                    

============================================================================

Db :------------|------------|------------|------------|------------|
Ab :------------|------------|------------|------------|------------|
E  :*-----------|------------|------------|------------|------------|
B  :5-----------|------------|7-----------|8-----------|1-----------|
Gb :5-----------|------------|------------|------------|1-----------|
B  :5-----------|------------|------------|------------|1-----------|

Db :------------|------------|------------|------------|------------|
Ab :------------|------------|------------|------------|------------|
E  :*-----------|------------|------------|------------|------------|
B  :5-----------|------------|7-----------|8-----------|1-----------|
Gb :5-----------|------------|------------|------------|1-----------|
B  :5-----------|------------|------------|------------|1-----------|

E  :------------|------------|------------|------------|------------|
B  :------------|------------|------------|------------|------------|
Gb :------------|------------|------------|------------|------------|
B  :------------|------------|------------|------------|------------|

Db :------------|------------|------------|------------|------------|
Ab :------------|------------|------------|------------|------------|
E  :------------|------------|------------|------------|------------|
B  :------------|------------|------------|------------|------------|
Gb :------------|------------|------------|------------|------------|
B  :------------|------------|------------|------------|------------|
                                                                    

============================================================================

Db :------------|------------|------------|------------|------------|
Ab :------------|------------|------------|------------|------------|
E  :------------|2-----------|------------|*-----------|------------|
B  :------------|------------|4-----------|*-----------|------------|
Gb :------------|------------|------------|*-----------|------------|
B  :------------|------------|------------|*-----------|------------|

Db :------------|------------|------------|------------|------------|
Ab :------------|------------|------------|------------|------------|
E  :------------|2-----------|------------|*-----------|------------|
B  :------------|------------|4-----------|*-----------|------------|
Gb :------------|------------|------------|*-----------|------------|
B  :------------|------------|------------|*-----------|------------|

E  :------------|------------|------------|------------|------------|
B  :------------|------------|------------|------------|------------|
Gb :------------|------------|------------|------------|------------|
B  :------------|------------|------------|*-----------|------------|

Db :------------|------------|------------|------------|------------|
Ab :------------|------------|------------|------------|------------|
E  :------------|------------|------------|------------|------------|
B  :------------|------------|------------|------------|------------|
Gb :------------|------------|------------|------------|------------|
B  :------------|------------|------------|------------|------------|
                                                                    

============================================================================

Db :------------|------------|------------|------------|------------|
Ab :------------|------------|------------|------------|------------|
E  :------------|------------|------------|------------|------------|
B  :------------|------------|------------|------------|------------|
Gb :1-0---4-5-0-|1-0---1-0-4-|1-0---4-5-0-|1-0---1-0-4-|1-0---4-5-0-|
B  :1-0-0-4-5-0-|1-0-0-1-0-4-|1-0-0-4-5-0-|1-0-0-1-0-4-|1-0-0-4-5-0-|

Db :------------|------------|------------|------------|------------|
Ab :------------|------------|------------|------------|------------|
E  :------------|------------|------------|------------|------------|
B  :------------|------------|------------|------------|------------|
Gb :1-0---4-5-0-|1-0---1-0-4-|1-0---4-5-0-|1-0---1-0-4-|1-0---4-5-0-|
B  :1-0-0-4-5-0-|1-0-0-1-0-4-|1-0-0-4-5-0-|1-0-0-1-0-4-|1-0-0-4-5-0-|

E  :------------|------------|------------|------------|------------|
B  :------------|------------|------------|------------|------------|
Gb :------------|------------|------------|------------|------------|
B  :1-0-0-4-5-0-|1-0-0-1-0-4-|1-0-0-4-5-0-|1-0-0-1-0-4-|1-0-0-4-5-0-|

Db :------------|------------|------------|------------|------------|
Ab :------------|------------|------------|------------|------------|
E  :------------|------------|------------|------------|------------|
B  :------------|------------|------------|------------|------------|
Gb :------------|------------|------------|------------|------------|
B  :------------|------------|------------|------------|------------|
                                                                    

============================================================================

Db :------------|------------|------------|------------|------------|
Ab :------------|------------|------------|------------|------------|
E  :------------|------------|------------|------------|------------|
B  :------------|------------|------------|------------|------------|
Gb :1-0---1-0-4-|1-0---4-5-0-|1-0---1-0-4-|1-0---4-5-0-|1-0---1-0-4-|
B  :1-0-0-1-0-4-|1-0-0-4-5-0-|1-0-0-1-0-4-|1-0-0-4-5-0-|1-0-0-1-0-4-|

Db :------------|------------|------------|------------|------------|
Ab :------------|------------|------------|------------|------------|
E  :------------|------------|------------|------------|------------|
B  :------------|------------|------------|------------|------------|
Gb :1-0---1-0-4-|1-0---4-5-0-|1-0---1-0-4-|1-0---4-5-0-|1-0---1-0-4-|
B  :1-0-0-1-0-4-|1-0-0-4-5-0-|1-0-0-1-0-4-|1-0-0-4-5-0-|1-0-0-1-0-4-|

E  :------------|------------|------------|------------|------------|
B  :------------|------------|------------|------------|------------|
Gb :------------|------------|------------|------------|------------|
B  :1-0-0-1-0-4-|1-0-0-4-5-0-|1-0-0-1-0-4-|1-0-0-4-5-0-|1-0-0-1-0-4-|

Db :------------|------------|------------|------------|------------|
Ab :------------|------------|------------|------------|------------|
E  :------------|------------|------------|------------|------------|
B  :------------|------------|------------|------------|------------|
Gb :------------|------------|------------|------------|------------|
B  :------------|------------|------------|------------|------------|
                                                                    

============================================================================

Db :------------|------------|------------|------------|------------|
Ab :------------|------------|------------|------------|------------|
E  :------------|------------|------------|------------|------------|
B  :------------|------------|------------|------------|------------|
Gb :1-0---4-5-0-|1-0---1-0-4-|1-0---4-5-0-|1-0---1-0-4-|1-0---4-5-0-|
B  :1-0-0-4-5-0-|1-0-0-1-0-4-|1-0-0-4-5-0-|1-0-0-1-0-4-|1-0-0-4-5-0-|

Db :------------|------------|------------|------------|------------|
Ab :------------|------------|------------|------------|------------|
E  :------------|------------|------------|------------|------------|
B  :------------|------------|------------|------------|------------|
Gb :1-0---4-5-0-|1-0---1-0-4-|1-0---4-5-0-|1-0---1-0-4-|1-0---4-5-0-|
B  :1-0-0-4-5-0-|1-0-0-1-0-4-|1-0-0-4-5-0-|1-0-0-1-0-4-|1-0-0-4-5-0-|

E  :------------|------------|------------|------------|------------|
B  :------------|------------|------------|------------|------------|
Gb :------------|------------|------------|------------|------------|
B  :1-0-0-4-5-0-|1-0-0-1-0-4-|1-0-0-4-5-0-|1-0-0-1-0-4-|1-0-0-4-5-0-|

Db :------------|------------|------------|------------|------------|
Ab :------------|------------|------------|------------|------------|
E  :------------|------------|------------|------------|------------|
B  :------------|------------|------------|------------|------------|
Gb :------------|------------|------------|------------|------------|
B  :------------|------------|------------|------------|------------|
                                                                    

============================================================================

Db :------------|--------------|-------------|------------|------------|
Ab :------------|--------------|-------------|------------|------------|
E  :------------|--------------|-------------|------------|------------|
B  :------------|--------------|-------------|------------|------------|
Gb :1-0---1-0-4-|5-------------|-------------|3-----------|5-----------|
B  :1-0-0-1-0-4-|--0-0-0-0-0-0-|1-0-0-1-b4-1-|--0-0-0-0-0-|--*---------|

Db :------------|--------------|-------------|------------|------------|
Ab :------------|--------------|-------------|------------|------------|
E  :------------|--------------|-------------|------------|------------|
B  :------------|--------------|-------------|------------|------------|
Gb :1-0---1-0-4-|--------------|-------------|0-----------|1-----------|
B  :1-0-0-1-0-4-|*-------------|-------------|--0-0-0-0-0-|--*---------|

E  :------------|--------------|-------------|------------|------------|
B  :------------|--------------|-------------|--1---0-----|------------|
Gb :------------|--------------|-------------|3---3---2---|------------|
B  :1-0-0-1-0-4-|0-------------|-------------|----------4-|0-*---------|

Db :------------|--------------|-------------|------------|------------|
Ab :------------|--------------|-------------|------------|------------|
E  :------------|--------------|-------------|------------|------------|
B  :------------|--------------|-------------|------------|------------|
Gb :------------|--------------|-------------|------------|------------|
B  :------------|--------------|-------------|------------|------------|
                                                                       

============================================================================

Db :--------------|-------------|------------|------------|--------------|
Ab :--------------|-------------|------------|------------|--------------|
E  :--------------|-------------|------------|------------|--------------|
B  :--------------|-------------|------------|------4-----|--------------|
Gb :5-------------|-------------|3-----------|5-------6-3-|5-------------|
B  :--0-0-0-0-0-0-|1-0-0-1-b4-1-|--0-0-0-0-0-|--0-0-------|--0-0-0-0-0-0-|

Db :--------------|-------------|------------|------------|--------------|
Ab :--------------|-------------|------------|------------|--------------|
E  :--------------|-------------|------------|------------|--------------|
B  :--------------|-------------|------------|------------|--------------|
Gb :1-------------|-------------|0-----------|1-----6-3-0-|1-------------|
B  :--0-0-0-0-0-0-|1-0-0-1-b4-1-|--0-0-0-0-0-|--0-0-------|--0-0-0-0-0-0-|

E  :--------------|-------------|------------|------------|--------------|
B  :--------------|-------------|--1---0-----|------------|--------------|
Gb :5-------------|-------------|3---3---2---|--------6-3-|5-------------|
B  :--0---0-0-0-0-|1-0-0-1--0-1-|----------4-|0-0-0-4-----|--0---0-0-0-0-|

Db :--------------|-------------|------------|------------|--------------|
Ab :--------------|-------------|------------|------------|--------------|
E  :--------------|-------------|------------|------------|--------------|
B  :--------------|-------------|------------|------------|--------------|
Gb :--------------|-------------|------------|------------|--------------|
B  :--------------|-------------|------------|------------|--------------|
                                                                         

============================================================================

Db :-------------|--------------|-------------|--------------|-------------|
Ab :-------------|--------------|-------------|--------------|-------------|
E  :-------------|--------------|-------------|--------------|-------------|
B  :-------------|--------------|-------------|--------------|-------------|
Gb :-------------|1-----------1-|0------------|5-------------|-------------|
B  :1-0-0-1-b4-1-|--0-0-0-0-0---|--0-0-1-b4-1-|--0-0-0-0-0-0-|1-0-0-1-b4-1-|

Db :-------------|--------------|-------------|--------------|-------------|
Ab :-------------|--------------|-------------|--------------|-------------|
E  :-------------|--------------|-------------|--------------|-------------|
B  :-------------|--------------|-------------|--------------|-------------|
Gb :-------------|--------------|-------------|1-------------|-------------|
B  :1-0-0-1-b4-1-|5-0-0-0-0-0-5-|4-0-0-1-b4-1-|--0-0-0-0-0-0-|1-0-0-1-b4-1-|

E  :-------------|--------------|-------------|--------------|-------------|
B  :-------------|--------------|-------------|--------------|-------------|
Gb :-------------|1-----------1-|0------------|5-------------|-------------|
B  :1-0-0-1--0-1-|--0---0-0-0---|--0-0-1--0-1-|--0---0-0-0-0-|1-0-0-1--0-1-|

Db :-------------|--------------|-------------|--------------|-------------|
Ab :-------------|--------------|-------------|--------------|-------------|
E  :-------------|--------------|-------------|--------------|-------------|
B  :-------------|--------------|-------------|--------------|-------------|
Gb :-------------|--------------|-------------|--------------|-------------|
B  :-------------|--------------|-------------|--------------|-------------|
                                                                           

============================================================================

Db :------------|------------|--------------|-------------|--------------|
Ab :------------|------------|--------------|-------------|--------------|
E  :------------|------------|--------------|-------------|--------------|
B  :------------|------4-----|--------------|-------------|--------------|
Gb :3-----------|5-------6-3-|5-------------|-------------|1-----------1-|
B  :--0-0-0-0-0-|--0-0-------|--0-0-0-0-0-0-|1-0-0-1-b4-1-|--0-0-0-0-0---|

Db :------------|------------|--------------|-------------|--------------|
Ab :------------|------------|--------------|-------------|--------------|
E  :------------|------------|--------------|-------------|--------------|
B  :------------|------------|--------------|-------------|--------------|
Gb :0-----------|1-----6-3-0-|1-------------|-------------|--------------|
B  :--0-0-0-0-0-|--0-0-------|--0-0-0-0-0-0-|1-0-0-1-b4-1-|5-0-0-0-0-0-5-|

E  :------------|------------|--------------|-------------|--------------|
B  :--1---0-----|------------|--------------|-------------|--------------|
Gb :3---3---2---|--------6-3-|5-------------|-------------|1-----------1-|
B  :----------4-|0-0-0-4-----|--0---0-0-0-0-|1-0-0-1--0-1-|--0---0-0-0---|

Db :------------|------------|--------------|-------------|--------------|
Ab :------------|------------|--------------|-------------|--------------|
E  :------------|------------|--------------|-------------|--------------|
B  :------------|------------|--------------|-------------|--------------|
Gb :------------|------------|--------------|-------------|--------------|
B  :------------|------------|--------------|-------------|--------------|
                                                                         

============================================================================

Db :-------------|--------------|-------------|------------|------------|
Ab :-------------|--------------|-------------|------------|------------|
E  :-------------|--------------|-------------|------------|------------|
B  :-------------|--------------|-------------|------------|------4-----|
Gb :0------------|5-------------|-------------|3-----------|5-------6-3-|
B  :--0-0-1-b4-1-|--0-0-0-0-0-0-|1-0-0-1-b4-1-|--0-0-0-0-0-|--0-0-------|

Db :-------------|--------------|-------------|------------|------------|
Ab :-------------|--------------|-------------|------------|------------|
E  :-------------|--------------|-------------|------------|------------|
B  :-------------|--------------|-------------|------------|------------|
Gb :-------------|1-------------|-------------|0-----------|1-----6-3-0-|
B  :4-0-0-1-b4-1-|--0-0-0-0-0-0-|1-0-0-1-b4-1-|--0-0-0-0-0-|--0-0-------|

E  :-------------|--------------|-------------|------------|------------|
B  :-------------|--------------|-------------|--1---0-----|------------|
Gb :0------------|5-------------|-------------|3---3---2---|--------6-3-|
B  :--0-0-1--0-1-|--0---0-0-0-0-|1-0-0-1--0-1-|----------4-|0-0-0-4-----|

Db :-------------|--------------|-------------|------------|------------|
Ab :-------------|--------------|-------------|------------|------------|
E  :-------------|--------------|-------------|------------|------------|
B  :-------------|--------------|-------------|------------|------------|
Gb :-------------|--------------|-------------|------------|------------|
B  :-------------|--------------|-------------|------------|------------|
                                                                        

============================================================================

Db :--------------|-------------|--------------|-------------|
Ab :--------------|-------------|--------------|-------------|
E  :--------------|-------------|--------------|-------------|
B  :--------------|-------------|--------------|-------------|
Gb :5-------------|-------------|1-----------1-|0------------|
B  :--0-0-0-0-0-0-|1-0-0-1-b4-1-|--0-0-0-0-0---|--0-0-1-b4-1-|

Db :--------------|-------------|--------------|-------------|
Ab :--------------|-------------|--------------|-------------|
E  :--------------|-------------|--------------|-------------|
B  :--------------|-------------|--------------|-------------|
Gb :1-------------|-------------|--------------|-------------|
B  :--0-0-0-0-0-0-|1-0-0-1-b4-1-|5-0-0-0-0-0-5-|4-0-0-1-b4-1-|

E  :--------------|-------------|--------------|-------------|
B  :--------------|-------------|--------------|-------------|
Gb :5-------------|-------------|1-----------1-|0------------|
B  :--0---0-0-0-0-|1-0-0-1--0-1-|--0---0-0-0---|--0-0-1--0-1-|

Db :--------------|-------------|--------------|-------------|
Ab :--------------|-------------|--------------|-------------|
E  :--------------|-------------|--------------|-------------|
B  :--------------|-------------|--------------|-------------|
Gb :--------------|-------------|--------------|-------------|
B  :--------------|-------------|--------------|-------------|
                                                             

============================================================================

Db :--------------|-------------|------------|------------|--------------|
Ab :--------------|-------------|------------|------------|--------------|
E  :--------------|-------------|------------|------------|--------------|
B  :--------------|-------------|------------|------4-----|--------------|
Gb :5-------------|-------------|3-----------|5-------6-3-|5-------------|
B  :--0-0-0-0-0-0-|1-0-0-1-b4-1-|--0-0-0-0-0-|--0-0-------|--0-0-0-0-0-0-|

Db :--------------|-------------|------------|------------|--------------|
Ab :--------------|-------------|------------|------------|--------------|
E  :--------------|-------------|------------|------------|--------------|
B  :--------------|-------------|------------|------------|--------------|
Gb :1-------------|-------------|0-----------|1-----6-3-0-|1-------------|
B  :--0-0-0-0-0-0-|1-0-0-1-b4-1-|--0-0-0-0-0-|--0-0-------|--0-0-0-0-0-0-|

E  :--------------|-------------|------------|------------|--------------|
B  :--------------|-------------|--1---0-----|------------|--------------|
Gb :5-------------|-------------|3---3---2---|--------6-3-|5-------------|
B  :--0---0-0-0-0-|1-0-0-1--0-1-|----------4-|0-0-0-4-----|--0---0-0-0-0-|

Db :--------------|-------------|------------|------------|--------------|
Ab :--------------|-------------|------------|------------|--------------|
E  :--------------|-------------|------------|------------|--------------|
B  :--------------|-------------|------------|------------|--------------|
Gb :--------------|-------------|------------|------------|--------------|
B  :--------------|-------------|------------|------------|--------------|
                                                                         

============================================================================

Db :-------------|---------------|------------|------------|
Ab :-------------|---------------|------------|------------|
E  :-------------|---------------|------------|------------|
B  :-------------|---------------|------------|------------|
Gb :-------------|1--------------|3-0---3-0-6-|------------|
B  :1-0-0-1-b4-1-|--0-0-0-1-b4-1-|----4-------|*-----------|

Db :-------------|---------------|------------|------------|
Ab :-------------|---------------|------------|------------|
E  :-------------|---------------|------------|------------|
B  :-------------|---------------|1---------4-|------------|
Gb :-------------|---------------|--3-0-6-3---|*-----------|
B  :1-0-0-1-b4-1-|5-0-0-0-1-b4-1-|------------|------------|

E  :-------------|---------------|------------|------------|
B  :-------------|---------------|------------|------------|
Gb :-------------|1--------------|3-0---3-0-6-|------------|
B  :1-0-0-1--0-1-|--0-0-0-1--0-1-|----4-------|*-----------|

Db :-------------|---------------|------------|------------|
Ab :-------------|---------------|------------|------------|
E  :-------------|---------------|------------|------------|
B  :-------------|---------------|------------|------------|
Gb :-------------|---------------|------------|------------|
B  :-------------|---------------|------------|------------|
                                                           
comments
We did not receive enough feedback on this tab! Please rate:
print report bad tab
1 2 3 4 5
I want to post or [tab]
guest
You may want to rate the tab now too:
select rating
Please do not post tabs as comments. Select "correction" instead!