Oops, an error
Loading. Please wait.

In Reference To A Sinking Ship - To Those Of Faith Tab

157 views 1 this week
no commentswrite comment
1 2 3 4 5
please rate
Autoscroll
+/-
esc
set tempo
stop
Contributor
Difficulty
Tuning
intermediate
B F# B E G# C#
NEW! There's an official Ultimate Guitar app which is ideal
for learning songs when you're away from computer. Get the app
WARNING: You are trying to view
                                    content from Ultimate-Guitar.com
                                    in an unauthorized application,
                                    which is prohibited.

                                    Please use an official Ultimate
                                    Guitar Tabs application for iPhone,
                                    iPad or Android to access legitimate
                                    chords, guitar, bass, and drum tabs
                                    from Ultimate-Guitar.com database.

                                    Type "ultimate guitar tabs" in Apple
                                    App Store's or Android Market's
                                    search to find the application.
To Those of Faith by In Reference to a Sinking Ship
Line 1 - Right Guitar
Line 2 - Left Guitar
Line 3 - Bass

Db :----------------|| --------------------------------|
Ab :----------------|| --------------------------------|
E  :----------------||*--------------------------------|
B  :----------------||*0-0-0-0-0-0-0---0-0-0-0-0-0-0---|
Gb :------------*---|| 0-0-0-0-0-0-0---0-0-0-0-0-0-0---|
B  :----------------|| 0-0-0-0*0*0-0*--0-0-0-0*0*0-0*--|

Db :----------------|| --------------------------------|
Ab :----------------|| --------------------------------|
E  :----------------||*--------------------------------|
B  :----------------||*0-0-0-0-0-0-0---0-0-0-0-0-0-0---|
Gb :------------*---|| 0-0-0-0-0-0-0---0-0-0-0-0-0-0---|
B  :----------------|| 0-0-0-0*0*0-0*--0-0-0-0*0*0-0*--|

E  :----------------|| --------------------------------|
B  :----------------||*--------------------------------|
Gb :------------*---||*--------------------------------|
B  :----------------|| 0-0-0-0*0*0-0*--0-0-0-0*0*0-0*--|

============================================================================

Db :-------------------------------- 1|--------------------------------|
Ab :-------------------------------- ||--------------------------------|
E  :--------------------------------*||--------------------------------|
B  :0-0-0-0-0-0-0---0-0-0-0-0-0-0-0-*||0-0-0-0-0-0-0---0-0-0-0-0-0-0---|
Gb :0-0-0-0-0-0-0---0-0-0-0-0-0-0-0- ||0-0-0-0-0-0-0---0-0-0-0-0-0-0---|
B  :0-0-0-0*0*0-0*--0-0-0-0*0*0-0*0* ||0-0-0-0-0-0-0---0-0-0-0-0-0-0---|

Db :-------------------------------- 1|--------------------------------|
Ab :-------------------------------- ||--------------------------------|
E  :--------------------------------*||--------------------------------|
B  :0-0-0-0-0-0-0---0-0-0-0-0-0-0-0-*||0-0-0-0-0-0-0---0-0-0-0-0-0-0---|
Gb :0-0-0-0-0-0-0---0-0-0-0-0-0-0-0- ||0-0-0-0-0-0-0---0-0-0-0-0-0-0---|
B  :0-0-0-0*0*0-0*--0-0-0-0*0*0-0*0* ||0-0-0-0-0-0-0---0-0-0-0-0-0-0---|

E  :-------------------------------- 1|--------------------------------|
B  :--------------------------------*||--------------------------------|
Gb :--------------------------------*||--------------------------------|
B  :0-0-0-0*0*0-0*--0-0-0-0*0*0-0*0* ||0-0-0-0-0-0-0---0-0-0-0-0-0-0---|

============================================================================

Db :--------------------------------|------------|------------|------------|
Ab :--------------------------------|------------|------------|------------|
E  :--------------------------------|------------|------------|------------|
B  :0-0-0-0-0-0-0---0-0-0-0-0-0-0-0-|0-*---------|------------|4-----------|
Gb :0-0-0-0-0-0-0---0-0-0-0-0-0-0-0-|0-----------|5-6---6-----|----6---3-5-|
B  :0-0-0-0*0*0-0*--0-0-0-0*0*0-0*0*|0-----------|----0---0-0-|--0---0-----|

Db :--------------------------------|------------|------------|------------|
Ab :--------------------------------|------------|------------|------------|
E  :--------------------------------|------------|------------|------------|
B  :0-0-0-0-0-0-0---0-0-0-0-0-0-0-0-|0-*---------|------------|4-----------|
Gb :0-0-0-0-0-0-0---0-0-0-0-0-0-0-0-|0-----------|5-6---6-----|----6---3-5-|
B  :0-0-0-0*0*0-0*--0-0-0-0*0*0-0*0*|0-----------|----0---0-0-|--0---0-----|

E  :--------------------------------|------------|------------|------------|
B  :--------------------------------|------------|------------|------------|
Gb :--------------------------------|------------|5-6---6-----|--------3-5-|
B  :0-0-0-0*0*0-0*--0-0-0-0*0*0-0*0*|0-*---------|----0---0-0-|4-0-1-0-----|

============================================================================

Db :------------|------------|------------|------------|------------|
Ab :------------|------------|------------|------------|------------|
E  :------------|------------|------------|------------|------------|
B  :--4---4-----|7-----------|5-8---8-----|8---7---5---|5-7---7-----|
Gb :6-----------|----5---6---|------------|------------|------------|
B  :----0---0-0-|--0---0---0-|----5---5-5-|--5---5---5-|----4---4-4-|

Db :------------|------------|------------|------------|------------|
Ab :------------|------------|------------|------------|------------|
E  :------------|------------|------------|------------|------------|
B  :--4---4-----|7-----------|5-8---8-----|8---7---5---|5-7---7-----|
Gb :6-----------|----5---6---|------------|------------|------------|
B  :----0---0-0-|--0---0---0-|----5---5-5-|--5---5---5-|----4---4-4-|

E  :------------|------------|------------|------------|------------|
B  :------------|------------|------------|------------|------------|
Gb :6-----------|----0---1---|------------|------------|------------|
B  :--4-0-4-0-0-|4-0---0---0-|5-5-5-5-5-5-|5-5-5-5-5-5-|4-4-4-4-4-4-|

============================================================================

Db :------------|------------|------------|------------|------------|
Ab :------------|------------|------------|------------|------------|
E  :------------|------------|------------|------------|------------|
B  :7---4-------|------------|4-----------|------------|4-----------|
Gb :--------6---|5-6---6-----|----6---0-1-|3-6---6-----|----0---1---|
B  :--4---4---4-|----0---0-0-|--0---0-----|----0---0-0-|--0---0---0-|

Db :------------|------------|------------|------------|------------|
Ab :------------|------------|------------|------------|------------|
E  :------------|------------|------------|------------|------------|
B  :7---4-------|------------|4-----------|--4---4-----|7-----------|
Gb :--------6---|5-6---6-----|----6---3-5-|6-----------|----5---6---|
B  :--4---4---4-|----0---0-0-|--0---0-----|----0---0-0-|--0---0---0-|

E  :------------|------------|------------|------------|------------|
B  :------------|------------|------------|------------|------------|
Gb :------------|5-6---6-----|--------3-5-|6-----------|----0---1---|
B  :4-4-4-4-4-4-|----0---0-0-|4-0-1-0-----|--4-0-4-0-0-|4-0---0---0-|

============================================================================

Db :------------|------------|------------|------------|------------|
Ab :------------|------------|------------|------------|------------|
E  :------------|------------|------------|------------|------------|
B  :5-8---8-----|8---7---5---|5-7---7-----|7---4-------|5-8---8-----|
Gb :------------|------------|------------|--------6---|------------|
B  :----5---5-5-|--5---5---5-|----4---4-4-|--4---4---4-|----5---5-5-|

Db :------------|------------|------------|------------|------------|
Ab :------------|------------|------------|------------|------------|
E  :3-7---7-----|7---5---3---|3-5---5-----|5---2-------|3-7---7-----|
B  :------------|------------|------------|--------4---|------------|
Gb :------------|------------|------------|------------|------------|
B  :----5---5-5-|--5---5---5-|----4---4-4-|--4---4---4-|----5---5-5-|

E  :------------|------------|------------|------------|------------|
B  :------------|------------|------------|------------|------------|
Gb :------------|------------|------------|------------|------------|
B  :5-5-5-5-5-5-|5-5-5-5-5-5-|4-4-4-4-4-4-|4-4-4-4-4-4-|5-5-5-5-5-5-|

============================================================================

Db :------------|------------|------------|------------|------------|
Ab :------------|------------|------------|------------|------------|
E  :------------|------------|------------|------------|------------|
B  :8---7---5---|5-7---7-----|7---4-------|5-8---8-----|8---7---5---|
Gb :------------|------------|--------6---|------------|------------|
B  :--5---5---5-|----4---4-4-|--4---4---4-|----5---5-5-|--5---5---5-|

Db :------------|------------|------------|------------|------------|
Ab :------------|------------|------------|------------|------------|
E  :7---5---3---|3-5---5-----|5---2-------|3-7---7-----|7---5---3---|
B  :------------|------------|--------4---|------------|------------|
Gb :------------|------------|------------|------------|------------|
B  :--5---5---5-|----4---4-4-|--4---4---4-|----5---5-5-|--5---5---5-|

E  :------------|------------|------------|------------|------------|
B  :------------|------------|------------|------------|------------|
Gb :------------|------------|------------|------------|------------|
B  :5-5-5-5-5-5-|4-4-4-4-4-4-|4-4-4-4-4-4-|5-5-5-5-5-5-|5-5-5-5-5-5-|

============================================================================

Db :------------|------------|------------|------------|------------|
Ab :------------|------------|------------|------------|------------|
E  :------------|------------|------------|------------|------------|
B  :5-7---7-----|7---4-------|------------|4-----------|--4---4-----|
Gb :------------|--------6---|5-6---6-----|----6---3-5-|6-----------|
B  :----4---4-4-|--4---4---4-|----0---0-0-|--0---0-----|----0---0-0-|

Db :------------|------------|------------|------------|------------|
Ab :------------|------------|------------|------------|------------|
E  :3-5---5-----|5---2-------|------------|------------|------------|
B  :------------|--------4---|------------|4-----------|--4---4-----|
Gb :------------|------------|5-6---6-----|----6---3-5-|6-----------|
B  :----4---4-4-|--4---4---4-|----0---0-0-|--0---0-----|----0---0-0-|

E  :------------|------------|------------|------------|------------|
B  :------------|------------|------------|------------|------------|
Gb :------------|------------|5-6---6-----|--------3-5-|6-----------|
B  :4-4-4-4-4-4-|4-4-4-4-4-4-|----0---0-0-|4-0-1-0-----|--4-0-4-0-0-|

============================================================================

Db :------------|------------|------------|------------|------------|
Ab :------------|------------|------------|------------|------------|
E  :------------|------------|------------|------------|------------|
B  :7-----------|5-8---8-----|8---7---5---|5-7---7-----|7---4-------|
Gb :----5---6---|------------|------------|------------|--------6---|
B  :--0---0---0-|----5---5-5-|--5---5---5-|----4---4-4-|--4---4---4-|

Db :------------|------------|------------|------------|------------|
Ab :------------|------------|------------|------------|------------|
E  :------------|------------|------------|------------|------------|
B  :7-----------|5-8---8-----|8---7---5---|5-7---7-----|7---4-------|
Gb :----5---6---|------------|------------|------------|--------6---|
B  :--0---0---0-|----5---5-5-|--5---5---5-|----4---4-4-|--4---4---4-|

E  :------------|------------|------------|------------|------------|
B  :------------|------------|------------|------------|------------|
Gb :----0---1---|------------|------------|------------|------------|
B  :4-0---0---0-|5-5-5-5-5-5-|5-5-5-5-5-5-|4-4-4-4-4-4-|4-4-4-4-4-4-|

============================================================================

Db :------------|------------|------------|------------|------------|
Ab :------------|------------|------------|------------|------------|
E  :------------|------------|------------|------------|------------|
B  :------------|4-----------|------------|------------|------------|
Gb :5-6---6-----|----6---0-1-|3-3---0-----|1---0-------|0-----------|
B  :----0---0-0-|--0---0-----|----0---0-0-|--0---0-5-0-|--4-0-4-0-0-|

Db :------------|------------|------------|------------|------------|
Ab :------------|------------|------------|------------|------------|
E  :------------|------------|------------|------------|------------|
B  :------------|4-----------|------------|------------|------------|
Gb :5-6---6-----|----6---3-5-|6-6---3-----|5---3---1---|3-0---0-----|
B  :----0---0-0-|--0---0-----|----0---0-0-|--0---0---0-|----0---0-0-|

E  :------------|------------|------------|------------|------------|
B  :------------|------------|------------|------------|------------|
Gb :5-6---6-----|--------3-5-|6-----------|----0---1---|------------|
B  :----0---0-0-|4-0-1-0-----|--4-0-4-0-0-|4-0---0---0-|5-5-5-5-5-5-|

============================================================================

Db :------------|------------|------------|------------|------------|
Ab :------------|------------|------------|------------|------------|
E  :------------|------------|------------|------------|------------|
B  :------------|1-----------|4-----------|0-*---------|0-*-0-*-0-*-|
Gb :1---0-------|1-----------|4-----------|0-----------|0---0---0---|
B  :--0---0-4-0-|1-----------|4-----------|0-----------|0---0---0---|

Db :------------|------------|------------|------------|------------|
Ab :------------|------------|------------|------------|------------|
E  :------------|------------|------------|------------|------------|
B  :------------|4-5-4-------|------------|4-----------|4-----------|
Gb :5---3---0---|------6-5-3-|5-6-5-3-5-6-|--6-5-3-5-6-|----6---5-6-|
B  :--0---0---0-|------------|------------|------------|--0---0-----|

E  :------------|------------|------------|------------|------------|
B  :------------|------------|------------|------------|------------|
Gb :------------|------------|------------|------------|------------|
B  :5-5-5-5-5-5-|4-4-4-4-4-4-|4-4-4-4-4-4-|0-*---------|0-*-0-*-0-*-|

============================================================================

Db :------------|------------|------------|------------|------------|
Ab :------------|------------|------------|------------|------------|
E  :------------|------------|------------|------------|------------|
B  :4-----------|4-----------|0-*---------|0-*-0-*-0-*-|4-----------|
Gb :--6-5-3-5-6-|----6---5-6-|0-----------|0---0---0---|--6-5-3-5-6-|
B  :------------|--0---0-----|0-----------|0---0---0---|------------|

Db :------------|------------|------------|------------|------------|
Ab :------------|------------|------------|------------|------------|
E  :------------|------------|------------|------------|------------|
B  :0-*---------|1-----------|4-----------|4-----------|0-----------|
Gb :0-----------|1-----------|--6-5-3-5-6-|----6---5-6-|0-----------|
B  :0-----------|1-----------|------------|--0---0-----|0-----------|

E  :------------|------------|------------|------------|------------|
B  :------------|------------|------------|------------|------------|
Gb :------------|------------|------------|------------|------------|
B  :0-*---------|1-----------|0-*---------|0-*-0-*-0-*-|0-----------|

============================================================================

Db :------------|| ------------|------------|------------|------------|
Ab :------------|| ------------|------------|------------|------------|
E  :------------||*------------|------------|------------|------------|
B  :4-----------||*4-----------|4-----------|4-----------|4-----------|
Gb :----6---5-6-|| --6-5-3-5-6-|----6---5-6-|--6-5-3-5-6-|----6---5-6-|
B  :--0---0-----|| ------------|--0---0-----|------------|--0---0-----|

Db :------------|| ------------|------------|------------|------------|
Ab :------------|| ------------|------------|------------|------------|
E  :------------||*------------|------------|------------|------------|
B  :1-----------||*------------|------------|------------|------------|
Gb :1-----------|| 6-3---------|6---3-------|6-3---------|6---3-------|
B  :1-----------|| ----7-4-0-1-|--0---0-0-1-|----7-4-0-1-|--0---0-0-1-|

E  :------------|| ------------|------------|------------|------------|
B  :------------||*------------|------------|------------|------------|
Gb :------------||*------------|------------|------------|------------|
B  :1-----------|| 4-0-0-0-0-1-|4-0-0-0-0-1-|4-0-0-0-0-1-|4-0-0-0-0-1-|

============================================================================

Db :------------|------------|------------|------------ 1|
Ab :------------|------------|------------|------------ ||
E  :------------|------------|------------|------------*||
B  :4-----------|4-----------|4-----------|4-----------*||
Gb :--6-5-3-5-6-|----6---5-6-|--6-5-3-5-6-|----6---5-6- ||
B  :------------|--0---0-----|------------|--0---0----- ||

Db :------------|------------|------------|------------ 1|
Ab :------------|------------|------------|------------ ||
E  :------------|------------|------------|------------*||
B  :------------|------------|------------|------------*||
Gb :6-3---------|6---3-------|6-3---------|6---3------- ||
B  :----7-4-0-1-|--0---0-0-1-|----7-4-0-1-|--0---0-0-1- ||

E  :------------|------------|------------|------------ 1|
B  :------------|------------|------------|------------*||
Gb :------------|------------|------------|------------*||
B  :4-0-0-0-0-1-|4-0-0-0-0-1-|4-0-0-0-0-1-|4-0-0-0-0-1- ||

============================================================================

Db :| -----------------------|-----------------------|
Ab :| -----------------------|-----------------------|
E  :|*-----------------------|-----------------------|
B  :|*4-4-4-4----------------|4-4-4-4----------------|
Gb :| --------6-6-6-6-5-5-5-5|--------6-6-6-6-5-5-5-5|
B  :| -----------------------|-----------------------|

Db :| -----------------------|-----------------------|
Ab :| -----------------------|-----------------------|
E  :|*-----------------------|-----------------------|
B  :|*-----------------------|-----------------------|
Gb :| 6---3------------------|6-------3--------------|
B  :| --------7---4---0---1--|----0-------0---0---1--|

E  :| -----------------------|-----------------------|
B  :|*-----------------------|-----------------------|
Gb :|*-----------------------|-----------------------|
B  :| 0---0---0---0---0---0--|0---0---0---0---0---0--|

============================================================================

Db :-----------------------|-----------------------|-----------------------|
Ab :-----------------------|-----------------------|-----------------------|
E  :-----------------------|-----------------------|-----------------------|
B  :5-5-5-5----------------|5-5-5-5----------------|7-7-7-7----------------|
Gb :--------3-3-3-3-5-5-5-5|--------3-3-3-3-5-5-5-5|--------6-6-6-6-5-5-5-5|
B  :-----------------------|-----------------------|-----------------------|

Db :-----------------------|-----------------------|-----------------------|
Ab :-----------------------|-----------------------|-----------------------|
E  :-----------------------|-----------------------|-----------------------|
B  :-----------------------|-----------------------|-----------------------|
Gb :6---3------------------|6-------3--------------|6---3------------------|
B  :--------7---4---0---1--|----0-------0---0---1--|--------7---4---0---1--|

E  :-----------------------|-----------------------|-----------------------|
B  :-----------------------|-----------------------|-----------------------|
Gb :-----------------------|-----------------------|-----------------------|
B  :1---1---1---1---1---1--|1---1---1---1---1---1--|7---7---7---7---7---7--|

============================================================================

Db :-----------------------|-----------------------|
Ab :-----------------------|-----------------------|
E  :-----------------------|-----------------------|
B  :7-7-7-7----------------|8-8-8-8----------------|
Gb :--------6-6-6-6-5-5-5-5|--------6-6-6-6-5-5-5-5|
B  :-----------------------|-----------------------|

Db :-----------------------|-----------------------|
Ab :-----------------------|-----------------------|
E  :-----------------------|-----------------------|
B  :-----------------------|-----------------------|
Gb :6-------3--------------|6---3------------------|
B  :----0-------0---0---1--|--------7---4---0---1--|

E  :-----------------------|-----------------------|
B  :-----------------------|-----------------------|
Gb :-----------------------|-----------------------|
B  :7---7---7---7---7---7--|8---8---8---8---8---8--|

============================================================================

Db :----------------------- 1|-----------------------|
Ab :----------------------- ||-----------------------|
E  :-----------------------*||-----------------------|
B  :8-8-8-8-7-7-7-7-5-5-5-5*||7-7-7-7-0-0-0-0-0-0-0-0|
Gb :----------------------- ||-----------------------|
B  :----------------------- ||-----------------------|

Db :----------------------- 1|-----------------------|
Ab :----------------------- ||-----------------------|
E  :-----------------------*||-----------------------|
B  :-----------------------*||7-7-7-7-0-0-0-0-0-0-0-0|
Gb :----------------------- ||-----------------------|
B  :8-8-8-8-7-7-7-7-5-5-5-5 ||-----------------------|

E  :----------------------- 1|-----------------------|
B  :-----------------------*||-----------------------|
Gb :-----------------------*||-----------------------|
B  :8---8---7---7---5---5-- ||0---0---0---0---0---0--|

============================================================================

Db :-----------------------|-----------------------|-----------------------|
Ab :-----------------------|-----------------------|-----------------------|
E  :-----------------------|-----------------------|-----------------------|
B  :7-7-7-7-0-0-0-0-0-0-0-0|7-7-7-7-0-0-0-0-0-0-0-0|7-7-7-7-5-5-5-5-7-7-7-7|
Gb :-----------------------|-----------------------|-----------------------|
B  :-----------------------|-----------------------|-----------------------|

Db :-----------------------|-----------------------|-----------------------|
Ab :-----------------------|-----------------------|-----------------------|
E  :-----------------------|-----------------------|-----------------------|
B  :7-7-7-7-0-0-0-0-0-0-0-0|7-7-7-7-0-0-0-0-0-0-0-0|7-7-7-7-5-5-5-5-7-7-7-7|
Gb :-----------------------|-----------------------|-----------------------|
B  :-----------------------|-----------------------|-----------------------|

E  :-----------------------|-----------------------|-----------------------|
B  :-----------------------|-----------------------|-----------------------|
Gb :-----------------------|-----------------------|-----------------------|
B  :0---0---0---0---0---0--|0---0---0---0---0---0--|7---7---5---5---7---7--|

============================================================================

Db :-----------------------|-----------------------|
Ab :-----------------------|-----------------------|
E  :-----------------------|-----------------------|
B  :8-8-8-8----------------|8-8-8-8----------------|
Gb :--------6-6-6-6-6-6-6-6|--------6-6-6-6-6-6-6-6|
B  :-----------------------|-----------------------|

Db :-----------------------|-----------------------|
Ab :-----------------------|-----------------------|
E  :-----------------------|-----------------------|
B  :8-8-8-8----------------|8-8-8-8----------------|
Gb :--------6-6-6-6-6-6-6-6|--------6-6-6-6-6-6-6-6|
B  :-----------------------|-----------------------|

E  :-----------------------|-----------------------|
B  :-----------------------|-----------------------|
Gb :-----------------------|-----------------------|
B  :1---1---1---1---1---1--|1---1---1---1---1---1--|

============================================================================

Db :-----------------------------------|-----------------------|
Ab :-----------------------------------|-----------------------|
E  :-----------------------------------|-----------------------|
B  :10-10-10-10-10-10-10-10-10-10-10-10|8-8-8-8-8-8-8-8-8-8-8-8|
Gb :-----------------------------------|-----------------------|
B  :-----------------------------------|-----------------------|

Db :-----------------------------------|-----------------------|
Ab :-----------------------------------|-----------------------|
E  :-----------------------------------|-----------------------|
B  :10-10-10-10-10-10-10-10-10-10-10-10|8-8-8-8-8-8-8-8-8-8-8-8|
Gb :-----------------------------------|-----------------------|
B  :-----------------------------------|-----------------------|

E  :-----------------------------------|-----------------------|
B  :-----------------------------------|-----------------------|
Gb :-3-----3-----3-----3-----3-----3---|1---1---1---1---1---1--|
B  :-----------------------------------|-----------------------|

============================================================================

Db :-----------------------|-----------------------|-----------------------|
Ab :-----------------------|-----------------------|-----------------------|
E  :-----------------------|-----------------------|-----------------------|
B  :7-7-7-7-0-0-0-0-0-0-0-0|7-7-7-7-0-0-0-0-0-0-0-0|7-7-7-7-0-0-0-0-0-0-0-0|
Gb :-----------------------|-----------------------|-----------------------|
B  :-----------------------|-----------------------|-----------------------|

Db :-----------------------|-----------------------|-----------------------|
Ab :-----------------------|-----------------------|-----------------------|
E  :-----------------------|-----------------------|-----------------------|
B  :7-7-7-7-0-0-0-0-0-0-0-0|7-7-7-7-0-0-0-0-0-0-0-0|7-7-7-7-0-0-0-0-0-0-0-0|
Gb :-----------------------|-----------------------|-----------------------|
B  :-----------------------|-----------------------|-----------------------|

E  :-----------------------|-----------------------|-----------------------|
B  :-----------------------|-----------------------|-----------------------|
Gb :-----------------------|-----------------------|-----------------------|
B  :0---0---0---0---0---0--|0---0---0---0---0---0--|0---0---0---0---0---0--|

============================================================================

Db :-----------------------|-----------------------|-----------------------|
Ab :-----------------------|-----------------------|-----------------------|
E  :-----------------------|-----------------------|-----------------------|
B  :7-7-7-7-5-5-5-5-7-7-7-7|8-8-8-8----------------|8-8-8-8----------------|
Gb :-----------------------|--------6-6-6-6-6-6-6-6|--------6-6-6-6-6-6-6-6|
B  :-----------------------|-----------------------|-----------------------|

Db :-----------------------|-----------------------|-----------------------|
Ab :-----------------------|-----------------------|-----------------------|
E  :-----------------------|-----------------------|-----------------------|
B  :7-7-7-7-5-5-5-5-7-7-7-7|8-8-8-8----------------|8-8-8-8----------------|
Gb :-----------------------|--------6-6-6-6-6-6-6-6|--------6-6-6-6-6-6-6-6|
B  :-----------------------|-----------------------|-----------------------|

E  :-----------------------|-----------------------|-----------------------|
B  :-----------------------|-----------------------|-----------------------|
Gb :-----------------------|-----------------------|-----------------------|
B  :7---7---5---5---7---7--|1---1---1---1---1---1--|1---1---1---1---1---1--|

============================================================================

Db :-----------------------|-----------------------|-----------------------|
Ab :-----------------------|-----------------------|-----------------------|
E  :-----------------------|-----------------------|-----------------------|
B  :5-5-5-5-5-5-5-5-5-5-5-5|4-4-4-4-4-4-4-4-4-4-4-4|0-0-0------------------|
Gb :-----------------------|-----------------------|0-0-0------------------|
B  :-----------------------|-----------------------|0-0-0-*----------------|

Db :-----------------------|-----------------------|-----------------------|
Ab :-----------------------|-----------------------|-----------------------|
E  :-----------------------|-----------------------|-----------------------|
B  :5-5-5-5-5-5-5-5-5-5-5-5|4-4-4-4-4-4-4-4-4-4-4-4|7-7-7-7-0-0-0-0-0-0-0-0|
Gb :-----------------------|-----------------------|-----------------------|
B  :-----------------------|-----------------------|-----------------------|

E  :-----------------------|-----------------------|-----------------------|
B  :-----------------------|-----------------------|-----------------------|
Gb :-----------------------|-----------------------|-----------------------|
B  :5---5---5---5---5---5--|4---4---4---4---4---4--|0-0-0-*----------------|

============================================================================

Db :-----------------------|-----------------------|-----------------------|
Ab :-----------------------|-----------------------|-----------------------|
E  :-----------------------|-----------------------|-----------------------|
B  :0-0-0---0-0-0---0-0-0--|0-0-0------------------|0---0---0---0---0-0-0-0|
Gb :0-0-0---0-0-0---0-0-0--|0-0-0------------------|0---0---0---0---0-0-0-0|
B  :0-0-0-*-0-0-0-*-0-0-0-*|0-0-0-*----------------|0---0---0---0---0-0-0-0|

Db :-----------------------|-----------------------|-----------------------|
Ab :-----------------------|-----------------------|-----------------------|
E  :-----------------------|-----------------------|-----------------------|
B  :7-7-7-7-0-0-0-0-0-0-0-0|7-7-7-7-0-0-0-0-0-0-0-0|7-7-7-7-5-5-5-5-7-7-7-7|
Gb :-----------------------|-----------------------|-----------------------|
B  :-----------------------|-----------------------|-----------------------|

E  :-----------------------|-----------------------|-----------------------|
B  :-----------------------|-----------------------|-----------------------|
Gb :-----------------------|-----------------------|-----------------------|
B  :0-0-0-*-0-0-0-*-0-0-0-*|0-0-0-*----------------|0---0---0---0---0-0-0-0|

============================================================================

Db :-----------------------|-----------------------|
Ab :-----------------------|-----------------------|
E  :-----------------------|-----------------------|
B  :0-0-0------------------|0-0-0---0-0-0---0-0-0--|
Gb :0-0-0------------------|0-0-0---0-0-0---0-0-0--|
B  :0-0-0-*----------------|0-0-0-*-0-0-0-*-0-0-0-*|

Db :-----------------------|-----------------------|
Ab :-----------------------|-----------------------|
E  :-----------------------|-----------------------|
B  :8-8-8-8----------------|8-8-8-8----------------|
Gb :--------6-6-6-6-6-6-6-6|--------6-6-6-6-6-6-6-6|
B  :-----------------------|-----------------------|

E  :-----------------------|-----------------------|
B  :-----------------------|-----------------------|
Gb :-----------------------|-----------------------|
B  :0-0-0-*----------------|0-0-0-*-0-0-0-*-0-0-0-*|

============================================================================

Db :-----------------------------------|-----------------------|
Ab :-----------------------------------|-----------------------|
E  :-----------------------------------|-----------------------|
B  :-0--0--0---------------------------|0-0-0-0-0-0-0-0-0-0-0-0|
Gb :-0--0--0---------------------------|0-0-0-0-0-0-0-0-0-0-0-0|
B  :-0--0--0--*------------------------|0-0-0-0-0-0-0-0-0-0-0-0|

Db :-----------------------------------|-----------------------|
Ab :-----------------------------------|-----------------------|
E  :-----------------------------------|-----------------------|
B  :10-10-10-10-10-10-10-10-10-10-10-10|8-8-8-8-8-8-8-8-8-8-8-8|
Gb :-----------------------------------|-----------------------|
B  :-----------------------------------|-----------------------|

E  :-----------------------------------|-----------------------|
B  :-----------------------------------|-----------------------|
Gb :-----------------------------------|-----------------------|
B  :-0--0--0--*------------------------|0-0-0-0-0-0-0-0-0-0-0-0|

============================================================================

Db :-----------------------|-----------------------|-----------------------|
Ab :-----------------------|-----------------------|-----------------------|
E  :-----------------------|-----------------------|-----------------------|
B  :0-0-0------------------|0-0-0---0-0-0---0-0-0--|0-0-0------------------|
Gb :0-0-0------------------|0-0-0---0-0-0---0-0-0--|0-0-0------------------|
B  :0-0-0-*----------------|0-0-0-*-0-0-0-*-0-0-0-*|0-0-0-*----------------|

Db :-----------------------|-----------------------|-----------------------|
Ab :-----------------------|-----------------------|-----------------------|
E  :-----------------------|-----------------------|-----------------------|
B  :7-7-7-7-0-0-0-0-0-0-0-0|7-7-7-7-0-0-0-0-0-0-0-0|7-7-7-7-0-0-0-0-0-0-0-0|
Gb :-----------------------|-----------------------|-----------------------|
B  :-----------------------|-----------------------|-----------------------|

E  :-----------------------|-----------------------|-----------------------|
B  :-----------------------|-----------------------|-----------------------|
Gb :-----------------------|-----------------------|-----------------------|
B  :0-0-0-*----------------|0-0-0-*-0-0-0-*-0-0-0-*|0-0-0-*----------------|

============================================================================

Db :-----------------------|-----------------------|-----------------------|
Ab :-----------------------|-----------------------|-----------------------|
E  :-----------------------|-----------------------|-----------------------|
B  :0---0---0---0---0-0-0-0|0-0-0------------------|0-0-0---0-0-0---0-0-0--|
Gb :0---0---0---0---0-0-0-0|0-0-0------------------|0-0-0---0-0-0---0-0-0--|
B  :0---0---0---0---0-0-0-0|0-0-0-*----------------|0-0-0-*-0-0-0-*-0-0-0-*|

Db :-----------------------|-----------------------|-----------------------|
Ab :-----------------------|-----------------------|-----------------------|
E  :-----------------------|-----------------------|-----------------------|
B  :7-7-7-7-5-5-5-5-7-7-7-7|8-8-8-8----------------|8-8-8-8----------------|
Gb :-----------------------|--------6-6-6-6-6-6-6-6|--------6-6-6-6-6-6-6-6|
B  :-----------------------|-----------------------|-----------------------|

E  :-----------------------|-----------------------|-----------------------|
B  :-----------------------|-----------------------|-----------------------|
Gb :-----------------------|-----------------------|-----------------------|
B  :0---0---0---0---0-0-0-0|0-0-0-*----------------|0-0-0-*-0-0-0-*-0-0-0-*|

============================================================================

Db :-----------------------|-----------------------|------------|
Ab :-----------------------|-----------------------|------------|
E  :-----------------------|-----------------------|------------|
B  :0-0-0------------------|0-0-0-0-0-0-0-0-0-0-0-0|0-----------|
Gb :0-0-0------------------|0-0-0-0-0-0-0-0-0-0-0-0|0-----------|
B  :0-0-0-*----------------|0-0-0-0-0-0-0-0-0-0-0-0|0-----------|

Db :-----------------------|-----------------------|------------|
Ab :-----------------------|-----------------------|------------|
E  :-----------------------|-----------------------|------------|
B  :5-5-5-5-5-5-5-5-5-5-5-5|4-4-4-4-4-4-4-4-4-4-4-4|0-----------|
Gb :-----------------------|-----------------------|5-----------|
B  :-----------------------|-----------------------|0-----------|

E  :-----------------------|-----------------------|------------|
B  :-----------------------|-----------------------|------------|
Gb :-----------------------|-----------------------|------------|
B  :0-0-0-*----------------|0-0-0-0-0-0-0-0-0-0-0-0|0-----------|

============================================================================

Db :------------|------------|------------|------------|------------|
Ab :------------|------------|------------|------------|------------|
E  :------------|------------|------------|------------|------------|
B  :------------|------------|------------|------------|------------|
Gb :------------|------------|------------|------------|------------|
B  :------------|------------|------------|------------|------------|

Db :------------|------------|------------|------------|------------|
Ab :------------|------------|------------|------------|------------|
E  :------------|------------|------------|------------|------------|
B  :------------|------------|------------|------------|------------|
Gb :------------|------------|------------|------------|------------|
B  :------------|------------|------------|------------|------------|

E  :------------|------------|------------|------------|------------|
B  :------------|------------|------------|------------|------------|
Gb :------------|------------|------------|------------|------------|
B  :------------|------------|7---5---7---|8---1-------|------------|

============================================================================

Db :------------|------------|------------|------------|------------|
Ab :------------|------------|------------|------------|------------|
E  :------------|------------|------------|------------|------------|
B  :------------|------------|0-----------|------------|------------|
Gb :------------|------------|0-----------|------------|------------|
B  :------------|------------|0-----------|------------|------------|

Db :------------|------------|------------|------------|------------|
Ab :------------|------------|------------|------------|------------|
E  :------------|------------|------------|------------|------------|
B  :------------|------------|0-----------|------------|------------|
Gb :------------|------------|5-----------|------------|------------|
B  :------------|------------|0-----------|------------|------------|

E  :------------|------------|------------|------------|------------|
B  :------------|------------|------------|------------|------------|
Gb :------------|------------|------------|------------|------------|
B  :------------|------------|0-----------|------------|------------|

============================================================================

Db :------------|------------|------------|------------|------------|
Ab :------------|------------|------------|------------|------------|
E  :------------|------------|------------|------------|------------|
B  :------------|------------|------------|------------|------------|
Gb :------------|------------|------------|------------|------------|
B  :------------|------------|------------|------------|------------|

Db :------------|------------|------------|------------|------------|
Ab :------------|------------|------------|------------|------------|
E  :------------|------------|------------|------------|------------|
B  :------------|------------|------------|------------|------------|
Gb :------------|------------|------------|------------|------------|
B  :------------|------------|------------|------------|------------|

E  :------------|------------|------------|------------|------------|
B  :------------|------------|------------|------------|------------|
Gb :------------|------------|------------|------------|------------|
B  :7---5---7---|8---1-------|------------|5-----------|4-----------|

============================================================================

Db :------------|------------|------------|------------|------------|
Ab :------------|------------|------------|------------|------------|
E  :------------|------------|------------|------------|------------|
B  :------------|4-----------|------------|4-----------|5-8---8-----|
Gb :*-----------|----6---3-5-|3-6---6-----|----0---1---|------------|
B  :------------|--0---0-----|----0---0-0-|--0---0---0-|----5---5-5-|

Db :------------|------------|------------|------------|------------|
Ab :------------|------------|------------|------------|------------|
E  :------------|------------|------------|------------|------------|
B  :------------|4-----------|--4---4-----|7-----------|5-8---8-----|
Gb :5-6---6-----|----6---3-5-|6-----------|----5---6---|------------|
B  :----0---0-0-|--0---0-----|----0---0-0-|--0---0---0-|----5---5-5-|

E  :------------|------------|------------|------------|------------|
B  :------------|4-----------|------------|------------|------------|
Gb :------------|----6---3-5-|6-----------|----0---1---|------------|
B  :*-----------|--0---0-----|--4-0-4-0-0-|4-0---0---0-|5-5-5-5-5-5-|

============================================================================

Db :------------|------------|------------|------------|------------|
Ab :------------|------------|------------|------------|------------|
E  :------------|------------|------------|------------|------------|
B  :8---7---5---|5-7---7-----|7---4-------|------------|4-----------|
Gb :------------|------------|--------6---|5-6---6-----|----6---0-1-|
B  :--5---5---5-|----4---4-4-|--4---4---4-|----0---0-0-|--0---0-----|

Db :------------|------------|------------|------------|------------|
Ab :------------|------------|------------|------------|------------|
E  :------------|------------|------------|------------|------------|
B  :8---7---5---|5-7---7-----|7---4-------|------------|4-----------|
Gb :------------|------------|--------6---|5-6---6-----|----6---3-5-|
B  :--5---5---5-|----4---4-4-|--4---4---4-|----0---0-0-|--0---0-----|

E  :------------|------------|------------|------------|------------|
B  :------------|------------|------------|------------|------------|
Gb :------------|------------|------------|5-6---6-----|--------3-5-|
B  :5-5-5-5-5-5-|4-4-4-4-4-4-|4-4-4-4-4-4-|----0---0-0-|4-0-1-0-----|

============================================================================

Db :------------|------------|------------|------------|------------|
Ab :------------|------------|------------|------------|------------|
E  :------------|------------|------------|------------|------------|
B  :------------|4-----------|5-8---8-----|8---7---5---|5-7---7-----|
Gb :3-6---6-----|----0---1---|------------|------------|------------|
B  :----0---0-0-|--0---0---0-|----5---5-5-|--5---5---5-|----4---4-4-|

Db :------------|------------|------------|------------|------------|
Ab :------------|------------|------------|------------|------------|
E  :------------|------------|3-7---7-----|7---5---3---|3-5---5-----|
B  :--4---4-----|7-----------|------------|------------|------------|
Gb :6-----------|----5---6---|------------|------------|------------|
B  :----0---0-0-|--0---0---0-|----5---5-5-|--5---5---5-|----4---4-4-|

E  :------------|------------|------------|------------|------------|
B  :------------|------------|------------|------------|------------|
Gb :6-----------|----0---1---|------------|------------|------------|
B  :--4-0-4-0-0-|4-0---0---0-|5-5-5-5-5-5-|5-5-5-5-5-5-|4-4-4-4-4-4-|

============================================================================

Db :------------|------------|------------|------------|------------|
Ab :------------|------------|------------|------------|------------|
E  :------------|------------|------------|------------|------------|
B  :7---4-------|5-8---8-----|8---7---5---|5-7---7-----|7---4-------|
Gb :--------6---|------------|------------|------------|--------6---|
B  :--4---4---4-|----5---5-5-|--5---5---5-|----4---4-4-|--4---4---4-|

Db :------------|------------|------------|------------|------------|
Ab :------------|------------|------------|------------|------------|
E  :5---2-------|3-7---7-----|7---5---3---|3-5---5-----|5---2-------|
B  :--------4---|------------|------------|------------|--------4---|
Gb :------------|------------|------------|------------|------------|
B  :--4---4---4-|----5---5-5-|--5---5---5-|----4---4-4-|--4---4---4-|

E  :------------|------------|------------|------------|------------|
B  :------------|------------|------------|------------|------------|
Gb :------------|------------|------------|------------|------------|
B  :4-4-4-4-4-4-|5-5-5-5-5-5-|5-5-5-5-5-5-|4-4-4-4-4-4-|4-4-4-4-4-4-|

============================================================================

Db :------------|------------|------------|------------|------------|
Ab :------------|------------|------------|------------|------------|
E  :------------|------------|------------|------------|------------|
B  :5-8---8-----|8---7---5---|5-7---7-----|------------|------------|
Gb :------------|------------|------------|------------|5-------1---|
B  :----5---5-5-|--5---5---5-|----4---4-4-|*-----------|--0-1-4---4-|

Db :------------|------------|------------|------------|------------|
Ab :------------|------------|------------|------------|------------|
E  :3-7---7-----|7---5---3---|3-5---5-----|------------|------------|
B  :------------|------------|------------|------------|------------|
Gb :------------|------------|------------|------------|5-------1---|
B  :----5---5-5-|--5---5---5-|----4---4-4-|*-----------|--0-1-4---4-|

E  :------------|------------|------------|------------|------------|
B  :------------|------------|------------|------------|------------|
Gb :------------|------------|------------|------------|--------1---|
B  :5-5-5-5-5-5-|5-5-5-5-5-5-|4-4-4-4-4-4-|*-----------|0-0-1-4---4-|

============================================================================

Db :------------|------------|------------|------------|------------|
Ab :------------|------------|------------|------------|------------|
E  :------------|------------|------------|------------|------------|
B  :------------|------------|------------|------------|------------|
Gb :0-------0---|5-------1---|0-------0---|*-----------|------------|
B  :--4-1-0---4-|--0-1-4---4-|--4-1-0---4-|------------|------------|

Db :------------|------------|------------|------------|------------|
Ab :------------|------------|------------|------------|------------|
E  :------------|------------|------------|------------|------------|
B  :------------|------------|------------|------------|------------|
Gb :0-------0---|5-------1---|0-------0---|5-------1---|0-------0---|
B  :--4-1-0---4-|--0-1-4---4-|--4-1-0---4-|--0-1-4---4-|--4-1-0---4-|

E  :------------|------------|------------|------------|------------|
B  :------------|------------|------------|------------|------------|
Gb :0-------0---|--------1---|0-------0---|--------1---|0-------0---|
B  :--4-1-0---4-|0-0-1-4---4-|--4-1-0---4-|0-0-1-4---4-|--4-1-0---4-|

============================================================================

Db :------------|------------|------------|------------|------------|
Ab :------------|------------|------------|------------|------------|
E  :------------|------------|------------|------------|------------|
B  :------------|------------|------------|------------|------------|
Gb :5-------1---|0-------0---|5-------1---|0-------0---|5-------1---|
B  :--0-1-4---4-|--4-1-0---4-|--0-1-4---4-|--4-1-0---4-|--0-1-4---4-|

Db :------------|------------|------------|------------|------------|
Ab :------------|------------|------------|------------|------------|
E  :------------|------------|------------|------------|------------|
B  :*-----------|------------|------------|------------|------------|
Gb :------------|------------|5-------1---|0-------0---|5-------1---|
B  :------------|------------|--0-1-4---4-|--4-1-0---4-|--0-1-4---4-|

E  :------------|------------|------------|------------|------------|
B  :------------|------------|------------|------------|------------|
Gb :--------1---|0-------0---|--------1---|0-------0---|--------1---|
B  :0-0-1-4---4-|--4-1-0---4-|0-0-1-4---4-|--4-1-0---4-|0-0-1-4---4-|

============================================================================

Db :------------|------------|------------|------------|------------|
Ab :------------|------------|------------|------------|------------|
E  :------------|------------|------------|------------|------------|
B  :------------|------------|------------|----1-------|1---4-------|
Gb :0-------0---|5-------1---|0-------0---|3-0---3-1-3-|--3---1-3-6-|
B  :--4-1-0---4-|--0-1-4---4-|--4-1-0---4-|------------|------------|

Db :------------|------------|------------|------------|------------|
Ab :------------|------------|------------|------------|------------|
E  :------------|------------|------------|------------|------------|
B  :------------|------------|------------|1---4-------|4---7-----4-|
Gb :0-------0---|5-------1---|0-------0---|--3---6-5-6-|--6---5-6---|
B  :--4-1-0---4-|--0-1-4---4-|--4-1-0---4-|------------|------------|

E  :------------|------------|------------|------------|------------|
B  :------------|------------|------------|------------|------------|
Gb :0-------0---|--------1---|0-------0---|--------1---|0-------0---|
B  :--4-1-0---4-|0-0-1-4---4-|--4-1-0---4-|0-0-1-4---4-|--4-1-0---4-|

============================================================================

Db :-----------------------|-----------------------|-----------------------|
Ab :-----------------------|-----------------------|-----------------------|
E  :-----------------------|-----------------------|-----------------------|
B  :7-7-7-7-0-0-0-0-0-0-0-0|7-7-7-7-0-0-0-0-0-0-0-0|7-7-7-7-0-0-0-0-0-0-0-0|
Gb :-----------------------|-----------------------|-----------------------|
B  :-----------------------|-----------------------|-----------------------|

Db :-----------------------|-----------------------|-----------------------|
Ab :-----------------------|-----------------------|-----------------------|
E  :-----------------------|-----------------------|-----------------------|
B  :7-7-7-7-0-0-0-0-0-0-0-0|7-7-7-7-0-0-0-0-0-0-0-0|7-7-7-7-0-0-0-0-0-0-0-0|
Gb :-----------------------|-----------------------|-----------------------|
B  :-----------------------|-----------------------|-----------------------|

E  :-----------------------|-----------------------|-----------------------|
B  :-----------------------|-----------------------|-----------------------|
Gb :-----------------------|-----------------------|-----------------------|
B  :0---0---0---0---0---0--|0---0---0---0---0---0--|0---0---0---0---0---0--|

============================================================================

Db :-----------------------|-----------------------|-----------------------|
Ab :-----------------------|-----------------------|-----------------------|
E  :-----------------------|-----------------------|-----------------------|
B  :7-7-7-7-5-5-5-5-7-7-7-7|8-8-8-8----------------|8-8-8-8----------------|
Gb :-----------------------|--------6-6-6-6-6-6-6-6|--------6-6-6-6-6-6-6-6|
B  :-----------------------|-----------------------|-----------------------|

Db :-----------------------|-----------------------|-----------------------|
Ab :-----------------------|-----------------------|-----------------------|
E  :-----------------------|-----------------------|-----------------------|
B  :7-7-7-7-5-5-5-5-7-7-7-7|8-8-8-8----------------|8-8-8-8----------------|
Gb :-----------------------|--------6-6-6-6-6-6-6-6|--------6-6-6-6-6-6-6-6|
B  :-----------------------|-----------------------|-----------------------|

E  :-----------------------|-----------------------|-----------------------|
B  :-----------------------|-----------------------|-----------------------|
Gb :-----------------------|-----------------------|-----------------------|
B  :7---7---5---5---7---7--|1---1---1---1---1---1--|1---1---1---1---1---1--|

============================================================================

Db :-----------------------------------|-----------------------|
Ab :-----------------------------------|-----------------------|
E  :-----------------------------------|-----------------------|
B  :10-10-10-10-10-10-10-10-10-10-10-10|8-8-8-8-8-8-8-8-8-8-8-8|
Gb :-----------------------------------|-----------------------|
B  :-----------------------------------|-----------------------|

Db :-----------------------------------|-----------------------|
Ab :-----------------------------------|-----------------------|
E  :-----------------------------------|-----------------------|
B  :10-10-10-10-10-10-10-10-10-10-10-10|8-8-8-8-8-8-8-8-8-8-8-8|
Gb :-----------------------------------|-----------------------|
B  :-----------------------------------|-----------------------|

E  :-----------------------------------|-----------------------|
B  :-----------------------------------|-----------------------|
Gb :-3-----3-----3-----3-----3-----3---|1---1---1---1---1---1--|
B  :-----------------------------------|-----------------------|

============================================================================

Db :-----------------------|-----------------------|-----------------------|
Ab :-----------------------|-----------------------|-----------------------|
E  :-----------------------|-----------------------|-----------------------|
B  :7-7-7-7-0-0-0-0-0-0-0-0|7-7-7-7-0-0-0-0-0-0-0-0|7-7-7-7-0-0-0-0-0-0-0-0|
Gb :-----------------------|-----------------------|-----------------------|
B  :-----------------------|-----------------------|-----------------------|

Db :-----------------------|-----------------------|-----------------------|
Ab :-----------------------|-----------------------|-----------------------|
E  :-----------------------|-----------------------|-----------------------|
B  :7-7-7-7-0-0-0-0-0-0-0-0|7-7-7-7-0-0-0-0-0-0-0-0|7-7-7-7-0-0-0-0-0-0-0-0|
Gb :-----------------------|-----------------------|-----------------------|
B  :-----------------------|-----------------------|-----------------------|

E  :-----------------------|-----------------------|-----------------------|
B  :-----------------------|-----------------------|-----------------------|
Gb :-----------------------|-----------------------|-----------------------|
B  :0---0---0---0---0---0--|0---0---0---0---0---0--|0---0---0---0---0---0--|

============================================================================

Db :-----------------------|-----------------------|-----------------------|
Ab :-----------------------|-----------------------|-----------------------|
E  :-----------------------|-----------------------|-----------------------|
B  :7-7-7-7-5-5-5-5-7-7-7-7|8-8-8-8----------------|8-8-8-8----------------|
Gb :-----------------------|--------6-6-6-6-6-6-6-6|--------6-6-6-6-6-6-6-6|
B  :-----------------------|-----------------------|-----------------------|

Db :-----------------------|-----------------------|-----------------------|
Ab :-----------------------|-----------------------|-----------------------|
E  :-----------------------|-----------------------|-----------------------|
B  :7-7-7-7-5-5-5-5-7-7-7-7|8-8-8-8----------------|8-8-8-8----------------|
Gb :-----------------------|--------6-6-6-6-6-6-6-6|--------6-6-6-6-6-6-6-6|
B  :-----------------------|-----------------------|-----------------------|

E  :-----------------------|-----------------------|-----------------------|
B  :-----------------------|-----------------------|-----------------------|
Gb :-----------------------|-----------------------|-----------------------|
B  :7---7---5---5---7---7--|1---1---1---1---1---1--|1---1---1---1---1---1--|

============================================================================

Db :-----------------------|-----------------------|-----------------------|
Ab :-----------------------|-----------------------|-----------------------|
E  :-----------------------|-----------------------|-----------------------|
B  :5-5-5-5-5-5-5-5-5-5-5-5|4-4-4-4-4-4-4-4-4-4-4-4|0-0-0------------------|
Gb :-----------------------|-----------------------|0-0-0------------------|
B  :-----------------------|-----------------------|0-0-0-*----------------|

Db :-----------------------|-----------------------|-----------------------|
Ab :-----------------------|-----------------------|-----------------------|
E  :-----------------------|-----------------------|-----------------------|
B  :5-5-5-5-5-5-5-5-5-5-5-5|4-4-4-4-4-4-4-4-4-4-4-4|7-7-7-7-0-0-0-0-0-0-0-0|
Gb :-----------------------|-----------------------|-----------------------|
B  :-----------------------|-----------------------|-----------------------|

E  :-----------------------|-----------------------|-----------------------|
B  :-----------------------|-----------------------|-----------------------|
Gb :-----------------------|-----------------------|-----------------------|
B  :5---5---5---5---5---5--|4---4---4---4---4---4--|0-0-0-*----------------|

============================================================================

Db :-----------------------|-----------------------|-----------------------|
Ab :-----------------------|-----------------------|-----------------------|
E  :-----------------------|-----------------------|-----------------------|
B  :0-0-0---0-0-0---0-0-0--|0-0-0------------------|0---0---0---0---0-0-0-0|
Gb :0-0-0---0-0-0---0-0-0--|0-0-0------------------|0---0---0---0---0-0-0-0|
B  :0-0-0-*-0-0-0-*-0-0-0-*|0-0-0-*----------------|0---0---0---0---0-0-0-0|

Db :-----------------------|-----------------------|-----------------------|
Ab :-----------------------|-----------------------|-----------------------|
E  :-----------------------|-----------------------|-----------------------|
B  :7-7-7-7-0-0-0-0-0-0-0-0|7-7-7-7-0-0-0-0-0-0-0-0|7-7-7-7-5-5-5-5-7-7-7-7|
Gb :-----------------------|-----------------------|-----------------------|
B  :-----------------------|-----------------------|-----------------------|

E  :-----------------------|-----------------------|-----------------------|
B  :-----------------------|-----------------------|-----------------------|
Gb :-----------------------|-----------------------|-----------------------|
B  :0-0-0-*-0-0-0-*-0-0-0-*|0-0-0-*----------------|0---0---0---0---0-0-0-0|

============================================================================

Db :-----------------------|-----------------------|
Ab :-----------------------|-----------------------|
E  :-----------------------|-----------------------|
B  :0-0-0------------------|0-0-0---0-0-0---0-0-0--|
Gb :0-0-0------------------|0-0-0---0-0-0---0-0-0--|
B  :0-0-0-*----------------|0-0-0-*-0-0-0-*-0-0-0-*|

Db :-----------------------|-----------------------|
Ab :-----------------------|-----------------------|
E  :-----------------------|-----------------------|
B  :8-8-8-8----------------|8-8-8-8----------------|
Gb :--------6-6-6-6-6-6-6-6|--------6-6-6-6-6-6-6-6|
B  :-----------------------|-----------------------|

E  :-----------------------|-----------------------|
B  :-----------------------|-----------------------|
Gb :-----------------------|-----------------------|
B  :0-0-0-*----------------|0-0-0-*-0-0-0-*-0-0-0-*|

============================================================================

Db :-----------------------------------|-----------------------|
Ab :-----------------------------------|-----------------------|
E  :-----------------------------------|-----------------------|
B  :-0--0--0---------------------------|0-0-0-0-0-0-0-0-0-0-0-0|
Gb :-0--0--0---------------------------|0-0-0-0-0-0-0-0-0-0-0-0|
B  :-0--0--0--*------------------------|0-0-0-0-0-0-0-0-0-0-0-0|

Db :-----------------------------------|-----------------------|
Ab :-----------------------------------|-----------------------|
E  :-----------------------------------|-----------------------|
B  :10-10-10-10-10-10-10-10-10-10-10-10|8-8-8-8-8-8-8-8-8-8-8-8|
Gb :-----------------------------------|-----------------------|
B  :-----------------------------------|-----------------------|

E  :-----------------------------------|-----------------------|
B  :-----------------------------------|-----------------------|
Gb :-----------------------------------|-----------------------|
B  :-0--0--0--*------------------------|0-0-0-0-0-0-0-0-0-0-0-0|

============================================================================

Db :-----------------------|-----------------------|-----------------------|
Ab :-----------------------|-----------------------|-----------------------|
E  :-----------------------|-----------------------|-----------------------|
B  :0-0-0------------------|0-0-0---0-0-0---0-0-0--|0-0-0------------------|
Gb :0-0-0------------------|0-0-0---0-0-0---0-0-0--|0-0-0------------------|
B  :0-0-0-*----------------|0-0-0-*-0-0-0-*-0-0-0-*|0-0-0-*----------------|

Db :-----------------------|-----------------------|-----------------------|
Ab :-----------------------|-----------------------|-----------------------|
E  :-----------------------|-----------------------|-----------------------|
B  :7-7-7-7-0-0-0-0-0-0-0-0|7-7-7-7-0-0-0-0-0-0-0-0|7-7-7-7-0-0-0-0-0-0-0-0|
Gb :-----------------------|-----------------------|-----------------------|
B  :-----------------------|-----------------------|-----------------------|

E  :-----------------------|-----------------------|-----------------------|
B  :-----------------------|-----------------------|-----------------------|
Gb :-----------------------|-----------------------|-----------------------|
B  :0-0-0-*----------------|0-0-0-*-0-0-0-*-0-0-0-*|0-0-0-*----------------|

============================================================================

Db :-----------------------|-----------------------|-----------------------|
Ab :-----------------------|-----------------------|-----------------------|
E  :-----------------------|-----------------------|-----------------------|
B  :0---0---0---0---0-0-0-0|0-0-0------------------|0-0-0---0-0-0---0-0-0--|
Gb :0---0---0---0---0-0-0-0|0-0-0------------------|0-0-0---0-0-0---0-0-0--|
B  :0---0---0---0---0-0-0-0|0-0-0-*----------------|0-0-0-*-0-0-0-*-0-0-0-*|

Db :-----------------------|-----------------------|-----------------------|
Ab :-----------------------|-----------------------|-----------------------|
E  :-----------------------|-----------------------|-----------------------|
B  :7-7-7-7-5-5-5-5-7-7-7-7|8-8-8-8----------------|8-8-8-8----------------|
Gb :-----------------------|--------6-6-6-6-6-6-6-6|--------6-6-6-6-6-6-6-6|
B  :-----------------------|-----------------------|-----------------------|

E  :-----------------------|-----------------------|-----------------------|
B  :-----------------------|-----------------------|-----------------------|
Gb :-----------------------|-----------------------|-----------------------|
B  :0---0---0---0---0-0-0-0|0-0-0-*----------------|0-0-0-*-0-0-0-*-0-0-0-*|

============================================================================

Db :-----------------------|-----------------------|--------------|
Ab :-----------------------|-----------------------|--------------|
E  :-----------------------|-----------------------|--------------|
B  :0-0-0------------------|-----------------------|0-0-0---------|
Gb :0-0-0------------------|-----------------------|0-0-0---------|
B  :0-0-0-*----------------|-----------------------|0-0-0*--------|

Db :-----------------------|-----------------------|--------------|
Ab :-----------------------|-----------------------|--------------|
E  :-----------------------|-----------------------|--------------|
B  :5-5-5-5-5-5-5-5-5-5-5-5|4-4-4-4-4-4-4-4-4-4-4-4|0-0-0---------|
Gb :-----------------------|-----------------------|0-0-0---------|
B  :-----------------------|-----------------------|0-0-0*--------|

E  :-----------------------|-----------------------|--------------|
B  :-----------------------|-----------------------|--------------|
Gb :-----------------------|-----------------------|--------------|
B  :0-0-0-*----------------|-----------------------|0-0-0*--------|

============================================================================

Db :------------------|--------------|---------------|--------------|
Ab :------------------|--------------|---------------|--------------|
E  :------------------|--------------|---------------|--------------|
B  :0-0-0-0-0-0-0-0-0-|0-0-0---------|0-0-0-0-0-0-0-0|0-0-0---------|
Gb :0-0-0-0-0-0-0-0-0-|0-0-0---------|0-0-0-0-0-0-0-0|0-0-0---------|
B  :0-0-0*0-0-0*0-0-0*|0-0-0*--------|0-0-0-0-0-0-0-0|0-0-0*--------|

Db :------------------|--------------|---------------|--------------|
Ab :------------------|--------------|---------------|--------------|
E  :------------------|--------------|---------------|--------------|
B  :0-0-0-0-0-0-0-0-0-|0-0-0---------|0-0-0-0-0-0-0-0|0-0-0---------|
Gb :0-0-0-0-0-0-0-0-0-|0-0-0---------|0-0-0-0-0-0-0-0|0-0-0---------|
B  :0-0-0*0-0-0*0-0-0*|0-0-0*--------|0-0-0-0-0-0-0-0|0-0-0*--------|

E  :------------------|--------------|---------------|--------------|
B  :------------------|--------------|---------------|--------------|
Gb :------------------|--------------|---------------|--------------|
B  :0-0-0*0-0-0*0-0-0*|0-0-0*--------|0-0-0-0-0-0-0-0|0-0-0*--------|

============================================================================

Db :------------------|--------------|-----------------------|
Ab :------------------|--------------|-----------------------|
E  :------------------|--------------|-----------------------|
B  :0-0-0-0-0-0-0-0-0-|0-0-0---------|0-0-0-0-0-0-0-0-0-0-0-0|
Gb :0-0-0-0-0-0-0-0-0-|0-0-0---------|0-0-0-0-0-0-0-0-0-0-0-0|
B  :0-0-0*0-0-0*0-0-0*|0-0-0*--------|0-0-0-0-0-0-0-0-0-0-0-0|

Db :------------------|--------------|-----------------------|
Ab :------------------|--------------|-----------------------|
E  :------------------|--------------|-----------------------|
B  :0-0-0-0-0-0-0-0-0-|0-0-0---------|0-0-0-0-0-0-0-0-0-0-0-0|
Gb :0-0-0-0-0-0-0-0-0-|0-0-0---------|0-0-0-0-0-0-0-0-0-0-0-0|
B  :0-0-0*0-0-0*0-0-0*|0-0-0*--------|0-0-0-0-0-0-0-0-0-0-0-0|

E  :------------------|--------------|-----------------------|
B  :------------------|--------------|-----------------------|
Gb :------------------|--------------|-----------------------|
B  :0-0-0*0-0-0*0-0-0*|0-0-0*--------|0-0-0-0-0-0-0-0-0-0-0-0|

============================================================================

Db :--------------|------------------|--------------|---------------|
Ab :--------------|------------------|--------------|---------------|
E  :--------------|------------------|--------------|---------------|
B  :0-0-0---------|0-0-0-0-0-0-0-0-0-|0-0-0---------|0-0-0-0-0-0-0-0|
Gb :0-0-0---------|0-0-0-0-0-0-0-0-0-|0-0-0---------|0-0-0-0-0-0-0-0|
B  :0-0-0*--------|0-0-0*0-0-0*0-0-0*|0-0-0*--------|0-0-0-0-0-0-0-0|

Db :--------------|------------------|--------------|---------------|
Ab :--------------|------------------|--------------|---------------|
E  :--------------|------------------|--------------|---------------|
B  :0-0-0---------|0-0-0-0-0-0-0-0-0-|0-0-0---------|0-0-0-0-0-0-0-0|
Gb :0-0-0---------|0-0-0-0-0-0-0-0-0-|0-0-0---------|0-0-0-0-0-0-0-0|
B  :0-0-0*--------|0-0-0*0-0-0*0-0-0*|0-0-0*--------|0-0-0-0-0-0-0-0|

E  :--------------|------------------|--------------|---------------|
B  :--------------|------------------|--------------|---------------|
Gb :--------------|------------------|--------------|---------------|
B  :0-0-0*--------|0-0-0*0-0-0*0-0-0*|0-0-0*--------|0-0-0-0-0-0-0-0|

============================================================================

Db :--------------|------------------|--------------|
Ab :--------------|------------------|--------------|
E  :--------------|------------------|--------------|
B  :0-0-0---------|0-0-0-0-0-0-0-0-0-|0-0-0---------|
Gb :0-0-0---------|0-0-0-0-0-0-0-0-0-|0-0-0---------|
B  :0-0-0*--------|0-0-0*0-0-0*0-0-0*|0-0-0*--------|

Db :--------------|------------------|--------------|
Ab :--------------|------------------|--------------|
E  :--------------|------------------|--------------|
B  :0-0-0---------|0-0-0-0-0-0-0-0-0-|0-0-0---------|
Gb :0-0-0---------|0-0-0-0-0-0-0-0-0-|0-0-0---------|
B  :0-0-0*--------|0-0-0*0-0-0*0-0-0*|0-0-0*--------|

E  :--------------|------------------|--------------|
B  :--------------|------------------|--------------|
Gb :--------------|------------------|--------------|
B  :0-0-0*--------|0-0-0*0-0-0*0-0-0*|0-0-0*--------|

============================================================================

Db :-----------------------|--------------|------------------|
Ab :-----------------------|--------------|------------------|
E  :-----------------------|--------------|------------------|
B  :0-0-0-0-0-0-0-0-0-0-0-0|0-0-0---------|0-0-0-0-0-0-0-0-0-|
Gb :0-0-0-0-0-0-0-0-0-0-0-0|0-0-0---------|0-0-0-0-0-0-0-0-0-|
B  :0-0-0-0-0-0-0-0-0-0-0-0|0-0-0*--------|0-0-0*0-0-0*0-0-0*|

Db :-----------------------|--------------|------------------|
Ab :-----------------------|--------------|------------------|
E  :-----------------------|--------------|------------------|
B  :0-0-0-0-0-0-0-0-0-0-0-0|0-0-0---------|0-0-0-0-0-0-0-0-0-|
Gb :0-0-0-0-0-0-0-0-0-0-0-0|0-0-0---------|0-0-0-0-0-0-0-0-0-|
B  :0-0-0-0-0-0-0-0-0-0-0-0|0-0-0*--------|0-0-0*0-0-0*0-0-0*|

E  :-----------------------|--------------|------------------|
B  :-----------------------|--------------|------------------|
Gb :-----------------------|--------------|------------------|
B  :0-0-0-0-0-0-0-0-0-0-0-0|0-0-0*--------|0-0-0*0-0-0*0-0-0*|

============================================================================

Db :--------------|---------------|--------------|------------------|
Ab :--------------|---------------|--------------|------------------|
E  :--------------|---------------|--------------|------------------|
B  :0-0-0---------|0-0-0-0-0-0-0-0|0-0-0---------|0-0-0-0-0-0-0-0-0-|
Gb :0-0-0---------|0-0-0-0-0-0-0-0|0-0-0---------|0-0-0-0-0-0-0-0-0-|
B  :0-0-0*--------|0-0-0-0-0-0-0-0|0-0-0*--------|0-0-0*0-0-0*0-0-0*|

Db :--------------|---------------|--------------|------------------|
Ab :--------------|---------------|--------------|------------------|
E  :--------------|---------------|--------------|------------------|
B  :0-0-0---------|0-0-0-0-0-0-0-0|0-0-0---------|0-0-0-0-0-0-0-0-0-|
Gb :0-0-0---------|0-0-0-0-0-0-0-0|0-0-0---------|0-0-0-0-0-0-0-0-0-|
B  :0-0-0*--------|0-0-0-0-0-0-0-0|0-0-0*--------|0-0-0*0-0-0*0-0-0*|

E  :--------------|---------------|--------------|------------------|
B  :--------------|---------------|--------------|------------------|
Gb :--------------|---------------|--------------|------------------|
B  :0-0-0*--------|0-0-0-0-0-0-0-0|0-0-0*--------|0-0-0*0-0-0*0-0-0*|

============================================================================

Db :--------------|-----------------------|--------------|
Ab :--------------|-----------------------|--------------|
E  :--------------|-----------------------|--------------|
B  :0-0-0---------|0-0-0-0-0-0-0-0-0-0-0-0|0-0-0---------|
Gb :0-0-0---------|0-0-0-0-0-0-0-0-0-0-0-0|0-0-0---------|
B  :0-0-0*--------|0-0-0-0-0-0-0-0-0-0-0-0|0-0-0*--------|

Db :--------------|-----------------------|--------------|
Ab :--------------|-----------------------|--------------|
E  :--------------|-----------------------|--------------|
B  :0-0-0---------|0-0-0-0-0-0-0-0-0-0-0-0|0-0-0---------|
Gb :0-0-0---------|0-0-0-0-0-0-0-0-0-0-0-0|0-0-0---------|
B  :0-0-0*--------|0-0-0-0-0-0-0-0-0-0-0-0|0-0-0*--------|

E  :--------------|-----------------------|--------------|
B  :--------------|-----------------------|--------------|
Gb :--------------|-----------------------|--------------|
B  :0-0-0*--------|0-0-0-0-0-0-0-0-0-0-0-0|0-0-0*--------|

============================================================================

Db :------------------|--------------|---------------|--------------|
Ab :------------------|--------------|---------------|--------------|
E  :------------------|--------------|---------------|--------------|
B  :0-0-0-0-0-0-0-0-0-|0-0-0---------|0-0-0-0-0-0-0-0|0-0-0---------|
Gb :0-0-0-0-0-0-0-0-0-|0-0-0---------|0-0-0-0-0-0-0-0|0-0-0---------|
B  :0-0-0*0-0-0*0-0-0*|0-0-0*--------|0-0-0-0-0-0-0-0|0-0-0*--------|

Db :------------------|--------------|---------------|--------------|
Ab :------------------|--------------|---------------|--------------|
E  :------------------|--------------|---------------|--------------|
B  :0-0-0-0-0-0-0-0-0-|0-0-0---------|0-0-0-0-0-0-0-0|0-0-0---------|
Gb :0-0-0-0-0-0-0-0-0-|0-0-0---------|0-0-0-0-0-0-0-0|0-0-0---------|
B  :0-0-0*0-0-0*0-0-0*|0-0-0*--------|0-0-0-0-0-0-0-0|0-0-0*--------|

E  :------------------|--------------|---------------|--------------|
B  :------------------|--------------|---------------|--------------|
Gb :------------------|--------------|---------------|--------------|
B  :0-0-0*0-0-0*0-0-0*|0-0-0*--------|0-0-0-0-0-0-0-0|0-0-0*--------|

============================================================================

Db :------------------|--------------|-----------------------|
Ab :------------------|--------------|-----------------------|
E  :------------------|--------------|-----------------------|
B  :0-0-0-0-0-0-0-0-0-|0-0-0---------|0-0-0-0-0-0-0-0-0-0-0-0|
Gb :0-0-0-0-0-0-0-0-0-|0-0-0---------|0-0-0-0-0-0-0-0-0-0-0-0|
B  :0-0-0*0-0-0*0-0-0*|0-0-0*--------|0-0-0-0-0-0-0-0-0-0-0-0|

Db :------------------|--------------|-----------------------|
Ab :------------------|--------------|-----------------------|
E  :------------------|--------------|-----------------------|
B  :0-0-0-0-0-0-0-0-0-|0-0-0---------|0-0-0-0-0-0-0-0-0-0-0-0|
Gb :0-0-0-0-0-0-0-0-0-|0-0-0---------|0-0-0-0-0-0-0-0-0-0-0-0|
B  :0-0-0*0-0-0*0-0-0*|0-0-0*--------|0-0-0-0-0-0-0-0-0-0-0-0|

E  :------------------|--------------|-----------------------|
B  :------------------|--------------|-----------------------|
Gb :------------------|--------------|-----------------------|
B  :0-0-0*0-0-0*0-0-0*|0-0-0*--------|0-0-0-0-0-0-0-0-0-0-0-0|

============================================================================

Db :--------------|------------------|--------------|---------------|
Ab :--------------|------------------|--------------|---------------|
E  :--------------|------------------|--------------|---------------|
B  :0-0-0---------|0-0-0-0-0-0-0-0-0-|0-0-0---------|0-0-0-0-0-0-0-0|
Gb :0-0-0---------|0-0-0-0-0-0-0-0-0-|0-0-0---------|0-0-0-0-0-0-0-0|
B  :0-0-0*--------|0-0-0*0-0-0*0-0-0*|0-0-0*--------|0-0-0-0-0-0-0-0|

Db :--------------|------------------|--------------|---------------|
Ab :--------------|------------------|--------------|---------------|
E  :--------------|------------------|--------------|---------------|
B  :0-0-0---------|0-0-0-0-0-0-0-0-0-|0-0-0---------|0-0-0-0-0-0-0-0|
Gb :0-0-0---------|0-0-0-0-0-0-0-0-0-|0-0-0---------|0-0-0-0-0-0-0-0|
B  :0-0-0*--------|0-0-0*0-0-0*0-0-0*|0-0-0*--------|0-0-0-0-0-0-0-0|

E  :--------------|------------------|--------------|---------------|
B  :--------------|------------------|--------------|---------------|
Gb :--------------|------------------|--------------|---------------|
B  :0-0-0*--------|0-0-0*0-0-0*0-0-0*|0-0-0*--------|0-0-0-0-0-0-0-0|

============================================================================

Db :--------------|------------------|--------------|
Ab :--------------|------------------|--------------|
E  :--------------|------------------|--------------|
B  :0-0-0---------|0-0-0-0-0-0-0-0-0-|0-0-0---------|
Gb :0-0-0---------|0-0-0-0-0-0-0-0-0-|0-0-0---------|
B  :0-0-0*--------|0-0-0*0-0-0*0-0-0*|0-0-0*--------|

Db :--------------|------------------|--------------|
Ab :--------------|------------------|--------------|
E  :--------------|------------------|--------------|
B  :0-0-0---------|0-0-0-0-0-0-0-0-0-|0-0-0---------|
Gb :0-0-0---------|0-0-0-0-0-0-0-0-0-|0-0-0---------|
B  :0-0-0*--------|0-0-0*0-0-0*0-0-0*|0-0-0*--------|

E  :--------------|------------------|--------------|
B  :--------------|------------------|--------------|
Gb :--------------|------------------|--------------|
B  :0-0-0*--------|0-0-0*0-0-0*0-0-0*|0-0-0*--------|

============================================================================

Db :-----------------------|--------------|------------------|
Ab :-----------------------|--------------|------------------|
E  :-----------------------|--------------|------------------|
B  :0-0-0-0-0-0-0-0-0-0-0-0|0-0-0---------|0-0-0-0-0-0-0-0-0-|
Gb :0-0-0-0-0-0-0-0-0-0-0-0|0-0-0---------|0-0-0-0-0-0-0-0-0-|
B  :0-0-0-0-0-0-0-0-0-0-0-0|0-0-0*--------|0-0-0*0-0-0*0-0-0*|

Db :-----------------------|--------------|------------------|
Ab :-----------------------|--------------|------------------|
E  :-----------------------|--------------|------------------|
B  :0-0-0-0-0-0-0-0-0-0-0-0|0-0-0---------|0-0-0-0-0-0-0-0-0-|
Gb :0-0-0-0-0-0-0-0-0-0-0-0|0-0-0---------|0-0-0-0-0-0-0-0-0-|
B  :0-0-0-0-0-0-0-0-0-0-0-0|0-0-0*--------|0-0-0*0-0-0*0-0-0*|

E  :-----------------------|--------------|------------------|
B  :-----------------------|--------------|------------------|
Gb :-----------------------|--------------|------------------|
B  :0-0-0-0-0-0-0-0-0-0-0-0|0-0-0*--------|0-0-0*0-0-0*0-0-0*|

============================================================================

Db :--------------|---------------|--------------|------------------|
Ab :--------------|---------------|--------------|------------------|
E  :--------------|---------------|--------------|------------------|
B  :0-0-0---------|0-0-0-0-0-0-0-0|0-0-0---------|0-0-0-0-0-0-0-0-0-|
Gb :0-0-0---------|0-0-0-0-0-0-0-0|0-0-0---------|0-0-0-0-0-0-0-0-0-|
B  :0-0-0*--------|0-0-0-0-0-0-0-0|0-0-0*--------|0-0-0*0-0-0*0-0-0*|

Db :--------------|---------------|--------------|------------------|
Ab :--------------|---------------|--------------|------------------|
E  :--------------|---------------|--------------|------------------|
B  :0-0-0---------|0-0-0-0-0-0-0-0|0-0-0---------|0-0-0-0-0-0-0-0-0-|
Gb :0-0-0---------|0-0-0-0-0-0-0-0|0-0-0---------|0-0-0-0-0-0-0-0-0-|
B  :0-0-0*--------|0-0-0-0-0-0-0-0|0-0-0*--------|0-0-0*0-0-0*0-0-0*|

E  :--------------|---------------|--------------|------------------|
B  :--------------|---------------|--------------|------------------|
Gb :--------------|---------------|--------------|------------------|
B  :0-0-0*--------|0-0-0-0-0-0-0-0|0-0-0*--------|0-0-0*0-0-0*0-0-0*|

============================================================================

Db :--------------|-----------------------|--------------|
Ab :--------------|-----------------------|--------------|
E  :--------------|-----------------------|--------------|
B  :0-0-0---------|0-0-0-0-0-0-0-0-0-0-0-0|0-0-0---------|
Gb :0-0-0---------|0-0-0-0-0-0-0-0-0-0-0-0|0-0-0---------|
B  :0-0-0*--------|0-0-0-0-0-0-0-0-0-0-0-0|0-0-0*--------|

Db :--------------|-----------------------|--------------|
Ab :--------------|-----------------------|--------------|
E  :--------------|-----------------------|--------------|
B  :0-0-0---------|0-0-0-0-0-0-0-0-0-0-0-0|0-0-0---------|
Gb :0-0-0---------|0-0-0-0-0-0-0-0-0-0-0-0|0-0-0---------|
B  :0-0-0*--------|0-0-0-0-0-0-0-0-0-0-0-0|0-0-0*--------|

E  :--------------|-----------------------|--------------|
B  :--------------|-----------------------|--------------|
Gb :--------------|-----------------------|--------------|
B  :0-0-0*--------|0-0-0-0-0-0-0-0-0-0-0-0|0-0-0*--------|

============================================================================

Db :------------------|--------------|---------------|--------------|
Ab :------------------|--------------|---------------|--------------|
E  :------------------|--------------|---------------|--------------|
B  :0-0-0-0-0-0-0-0-0-|0-0-0---------|0-0-0-0-0-0-0-0|0-0-0---------|
Gb :0-0-0-0-0-0-0-0-0-|0-0-0---------|0-0-0-0-0-0-0-0|0-0-0---------|
B  :0-0-0*0-0-0*0-0-0*|0-0-0*--------|0-0-0-0-0-0-0-0|0-0-0*--------|

Db :------------------|--------------|---------------|--------------|
Ab :------------------|--------------|---------------|--------------|
E  :------------------|--------------|---------------|--------------|
B  :0-0-0-0-0-0-0-0-0-|0-0-0---------|0-0-0-0-0-0-0-0|0-0-0---------|
Gb :0-0-0-0-0-0-0-0-0-|0-0-0---------|0-0-0-0-0-0-0-0|0-0-0---------|
B  :0-0-0*0-0-0*0-0-0*|0-0-0*--------|0-0-0-0-0-0-0-0|0-0-0*--------|

E  :------------------|--------------|---------------|--------------|
B  :------------------|--------------|---------------|--------------|
Gb :------------------|--------------|---------------|--------------|
B  :0-0-0*0-0-0*0-0-0*|0-0-0*--------|0-0-0-0-0-0-0-0|0-0-0*--------|

============================================================================

Db :------------------|--------------|-----------------------|
Ab :------------------|--------------|-----------------------|
E  :------------------|--------------|-----------------------|
B  :0-0-0-0-0-0-0-0-0-|0-0-0---------|0-0-0-0-0-0-0-0-0-0-0-0|
Gb :0-0-0-0-0-0-0-0-0-|0-0-0---------|0-0-0-0-0-0-0-0-0-0-0-0|
B  :0-0-0*0-0-0*0-0-0*|0-0-0*--------|0-0-0-0-0-0-0-0-0-0-0-0|

Db :------------------|--------------|-----------------------|
Ab :------------------|--------------|-----------------------|
E  :------------------|--------------|-----------------------|
B  :0-0-0-0-0-0-0-0-0-|0-0-0---------|0-0-0-0-0-0-0-0-0-0-0-0|
Gb :0-0-0-0-0-0-0-0-0-|0-0-0---------|0-0-0-0-0-0-0-0-0-0-0-0|
B  :0-0-0*0-0-0*0-0-0*|0-0-0*--------|0-0-0-0-0-0-0-0-0-0-0-0|

E  :------------------|--------------|-----------------------|
B  :------------------|--------------|-----------------------|
Gb :------------------|--------------|-----------------------|
B  :0-0-0*0-0-0*0-0-0*|0-0-0*--------|0-0-0-0-0-0-0-0-0-0-0-0|

============================================================================

Db :--------------|------------------|--------------|---------------|
Ab :--------------|------------------|--------------|---------------|
E  :--------------|------------------|--------------|---------------|
B  :0-0-0---------|0-0-0-0-0-0-0-0-0-|0-0-0---------|0-0-0-0-0-0-0-0|
Gb :0-0-0---------|0-0-0-0-0-0-0-0-0-|0-0-0---------|0-0-0-0-0-0-0-0|
B  :0-0-0*--------|0-0-0*0-0-0*0-0-0*|0-0-0*--------|0-0-0-0-0-0-0-0|

Db :--------------|------------------|--------------|---------------|
Ab :--------------|------------------|--------------|---------------|
E  :--------------|------------------|--------------|---------------|
B  :0-0-0---------|0-0-0-0-0-0-0-0-0-|0-0-0---------|0-0-0-0-0-0-0-0|
Gb :0-0-0---------|0-0-0-0-0-0-0-0-0-|0-0-0---------|0-0-0-0-0-0-0-0|
B  :0-0-0*--------|0-0-0*0-0-0*0-0-0*|0-0-0*--------|0-0-0-0-0-0-0-0|

E  :--------------|------------------|--------------|---------------|
B  :--------------|------------------|--------------|---------------|
Gb :--------------|------------------|--------------|---------------|
B  :0-0-0*--------|0-0-0*0-0-0*0-0-0*|0-0-0*--------|0-0-0-0-0-0-0-0|

============================================================================

Db :--------------|------------------|--------------|
Ab :--------------|------------------|--------------|
E  :--------------|------------------|--------------|
B  :0-0-0---------|0-0-0-0-0-0-0-0-0-|0-0-0---------|
Gb :0-0-0---------|0-0-0-0-0-0-0-0-0-|0-0-0---------|
B  :0-0-0*--------|0-0-0*0-0-0*0-0-0*|0-0-0*--------|

Db :--------------|------------------|--------------|
Ab :--------------|------------------|--------------|
E  :--------------|------------------|--------------|
B  :0-0-0---------|0-0-0-0-0-0-0-0-0-|0-0-0---------|
Gb :0-0-0---------|0-0-0-0-0-0-0-0-0-|0-0-0---------|
B  :0-0-0*--------|0-0-0*0-0-0*0-0-0*|0-0-0*--------|

E  :--------------|------------------|--------------|
B  :--------------|------------------|--------------|
Gb :--------------|------------------|--------------|
B  :0-0-0*--------|0-0-0*0-0-0*0-0-0*|0-0-0*--------|

============================================================================

Db :-----------------------|------------|
Ab :-----------------------|------------|
E  :-----------------------|------------|
B  :0-0-0-0-0-0-0-0-0-0-0-0|------------|
Gb :0-0-0-0-0-0-0-0-0-0-0-0|------------|
B  :0-0-0-0-0-0-0-0-0-0-0-0|------------|

Db :-----------------------|------------|
Ab :-----------------------|------------|
E  :-----------------------|------------|
B  :0-0-0-0-0-0-0-0-0-0-0-0|------------|
Gb :0-0-0-0-0-0-0-0-0-0-0-0|------------|
B  :0-0-0-0-0-0-0-0-0-0-0-0|------------|

E  :-----------------------|------------|
B  :-----------------------|------------|
Gb :-----------------------|------------|
B  :0-0-0-0-0-0-0-0-0-0-0-0|------------|
comments
We did not receive enough feedback on this tab! Please rate:
print report bad tab
1 2 3 4 5
I want to post or [tab]
guest
You may want to rate the tab now too:
select rating
Please do not post tabs as comments. Select "correction" instead!