Oops, an error
Loading. Please wait.

Inhale The Sea - An Ode To Nothing Tab

418 views 1 this week
no commentswrite comment
1 2 3 4 5
please rate
Autoscroll
+/-
esc
set tempo
stop
Contributor
WARNING: You are trying to view
                                    content from Ultimate-Guitar.com
                                    in an unauthorized application,
                                    which is prohibited.

                                    Please use an official Ultimate
                                    Guitar Tabs application for iPhone,
                                    iPad or Android to access legitimate
                                    chords, guitar, bass, and drum tabs
                                    from Ultimate-Guitar.com database.

                                    Type "ultimate guitar tabs" in Apple
                                    App Store's or Android Market's
                                    search to find the application.
=====================[INHALE THE SEA]======================
==============[AN ODE TO NOTHING ALBUM TAB]================

Here's the way I play the songs. There's SOME parts 
missing, but not many. I just copied most of "The World 
You Knew" from the tabs that Inhale The Sea sent me.

===========================================================
===========================================================
01. Failing Hope
TUNING: C#G#C#F#A#D#

(Quietly just play Exhale lead part)
D#|-17-17-17-15-15-15-------------------------------------|
A#|-------------------17-17-17-18-18-18-18-18-18-18-18-18-|
F#|------------------------------[JUST-REPEAT-THE-18'S]---|
C#|-------------------------------------------------------|
G#|-------------------------------------------------------|
C#|-------------------------------------------------------|

--------------------------------
Song Order:                     |
This is the entire guitar part. |
===========================================================
===========================================================
02. Whispers
TUNING: C#G#C#F#A#B

Intro A
B |-0-0-0-0-0-0-0-0-|-0-0-0-0-0-0-0-0-|
A#|-6-6-6-6-6-6-6-6-|-6-6-6-6-6-6-6-6-|
F#|-9-9-9-9-9-9-9-9-|-9-9-9-9-9-9-9-9-|
C#|-0-0-0-0-0-0-0-0-|-8-8-8-8-8-8-8-8-| X2
G#|-0-0-0-0-0-0-0-0-|-8-8-8-8-8-8-8-8-|
C#|-0-0-0-0-0-0-0-0-|-8-8-8-8-8-8-8-8-|


Intro B
B |-0-0-0-0-0-0-0-0-|-0-0-0-0-0-0-0-0-|
A#|-6-6-6-6-6-6-6-6-|-6-6-6-6-6-6-6-6-|
F#|-9-9-9-9-9-9-9-9-|-9-9-9-9-9-9-9-9-|
C#|-0-0-0-0-0-0-0-0-|-8-8-8-8-8-8-8-8-| X3
G#|-0-0-0-0-0-0-0-0-|-8-8-8-8-8-8-8-8-|
C#|-0-0-0-0-0-0-0-0-|-8-8-8-8-8-8-8-8-|

B |---------------|
A#|---------------|
F#|---------------|
C#|-3-3-3-5-5-5-5-| X1
G#|-3-3-3-5-5-5-5-|
C#|-3-3-3-5-5-5-5-|


Verse
B |-------0-----------0-|
A#|-------6-----------6-|
F#|-------9-----------9-|
C#|----0--0--------8--8-|
G#|---------------------|
C#|-0-----------8-------|


Chorus
[Rhythm]
B |--------------------------------------------------------|
A#|--------------------------------------------------------|
F#|--------------------------------------------------------|
C#|--------------------------------------------------------|
G#|--------------------------------------------------------|
C#|-00000000000000-8888888888888-555555555555-333333333333-|

[Lead]
B |--------------------------------------------------------|
A#|-18tr~~~~~~~~~~~17tr~~~15tr~~~--------------------------|
F#|------------------------------14tr~~~~~~~~~15tr~~~17tr~~|
C#|--------------------------------------------------------|
G#|--------------------------------------------------------|
C#|--------------------------------------------------------|


Breakdown
B |-------------------------|
A#|-------------------------|
F#|-------------------------|
C#|-77-77-77-77-77-77-77-77-|
G#|-55-55-55-55-55-55-55-55-|
C#|-------------00-00-00-00-|


Bridge A
B |---------|
A#|---------|
F#|---------|
C#|-0-000-0-|Repeat this for a bit.
G#|-0-000-0-|
C#|-0-000-0-|
PM  . ...

Bridge A continued.
B |---------|
A#|---------|
F#|---------|
C#|-1-111-1-|
G#|-1-111-1-|
C#|-1-111-1-|
PM  . ... 

The rest of the bridge I'm not to sure on so I didn't tab it.

-------------------------
Song Order:              |
Intro A                  |
Intro B              x2  |
[Rest]                   |
Verse                x8  |
Chorus               x4  |
Verse                x4  |
Intro B              x2  |
Chorus               x4  |
Breakdown            x1  |
Bridge A             x12 |
Bridge A continued   x4  |
[Untabbed]               |
Intro B              x4  |
============================================================
============================================================
03. Echoes
TUNING: C#G#C#F#A#B

Not sure about this one. Haven't had time to learn it yet.
Should be along the same lines of Whispers though.

============================================================
============================================================
04. The World You Knew
TUNING: C#G#C#F#A#B

Intro
B |------------------------------------------0-----|
A#|------------------------------------6-------6---|
F#|----------------------------------9---9-------9-|
C#|----------------------------------------0-------|
G#|-0-000-0-000-0-000----0-000-0-000---------------|
C#|-0-000-0-000-0-000-3*-0-000-0-000---------------|
PM    ...   ...   ...      ...   ...

Verse 1
B |------------------------------------------------------------------|
A#|------------------------------------------------------------------|
F#|------------------------------------------------------------------|
C#|------------------------------------------------------------------|
G#|--------------------------------------------------5h6p5-----------|
C#|-0-4-1-3p1--0-0-6-3-5-0-1h4p1p0--0-4-1-3p1-00-5h8-------0h3h6p5p0-|
PM  . . .      . . . . . .          . . .

Pre Chorus
[Rhythm]
B |------------------------------------------|
A#|------------------------------------------|
F#|------------------------------------------|
C#|-0~~~~~~~~~~~8~~~5~~~0~~~~~~~~~~8~~~10~~~-|
G#|-0~~~~~~~~~~~8~~~5~~~0~~~~~~~~~~8~~~10~~~-|
C#|-0~~~~~~~~~~~8~~~5~~~0~~~~~~~~~~8~~~10~~~-|

[Lead]
B |------------------------------------------|
A#|-6-----6-----6-----6-----6-----6-----6----|
F#|---9-----9-----9-----9-----9-----9-----9--|
C#|------------------------------------------|
G#|------------------------------------------|
C#|------------------------------------------|

Chorus
B |----------------------------------------|
A#|----------------------------------------|
F#|----------------------------------------|
C#|-0--10h12-12--3--5--0--10h12-12--8--5---|
G#|-0--10h12-12--3--5--0--10h12-12--8--5---|
C#|-0--10h12-12--3--5--0--10h12-12--8--5---|

Verse 2

[Verse 1 x1 & then]

B |---------------------------------------------------------|
A#|---------------------------------------------------------|
F#|---------------------------------------------------------|
C#|-------------------------------7p5----------7h8p7--------|
G#|-0-0-5p0-5h8-00-0-7p0-7h10-5-5-----8p7-88-8-------10p8p7-|
C#|-0-0---------00-0----------5-5---------88-8--------------|
PM  .           ..            .           ..

Breakdown
B |------3//---------------|
A#|------3//---------------|
F#|------------------------|
C#|------------------------|
G#|-0-00---------0h3h5p3p0-|
C#|-0-00-----3p0-0h3h5p3p0-|
PM  . ..

Bridge
B |-------------------------------------|
A#|-------------------------------------|
F#|-------------------------------------|
C#|-0-0-8p7-----------0-0-8p7-----------|
G#|-0-0--------8--10~-0-0--------8~-5~--|
C#|-0-0-----8--5--8~~-0-0-----8--5~-3~--|

continued...

B |-------------------------------------|
A#|-------------------------------------|
F#|-------------------------------------|
C#|-0-0-8p7-----------0-0-8p7-----------|
G#|-0-0--------8~-10~-0-0--------10~-12-|
C#|-0-0-----8--5~-8~~-0-0-----8--8~~-10-|

-------------------------
Song Order:              |
Intro                x4  |
Verse A              x4  |
Pre Chorus           x2  |
Chorus               x8  |
Verse A              x2  |
Verse B              x2  |
Chorus               x8  |
Breakdown            x8  |
Bridge               x2  |
Pre Chorus           x2  |
Chorus               x12 |
===========================================================
===========================================================
05. Everything I Regret
TUNING: C#G#C#F#A#D# [can be played in C#G#C#F#A#B]

Intro/Chorus
D#|---------------------------|---------------------------|
A#|---------------------------|---------------------------|
F#|---------------------------|---------------------------|
C#|---------------------------|---------------------------|
G#|---------------------------|---------------------------|
C#|-000-1-0-00-8h10p8\7h8p7p0-|-000-1-0-00-7h8p7\5h7p-5p3-|
PM  ...     ..                  ...     ..

continued...

D#|---------------------------|-------------------------------|
A#|---------------------------|-------------------------------|
F#|---------------------------|-------------------------------|
C#|---------------------------|-----3h5p3h3h5-----------------|
G#|---------------------------|-5-5-----------3-3-3h5p3-------|
C#|-000-1-0-00-8h10p8\7h8p7p0-|-5-5-----------3-3-------3h5p3-|
PM  ...     ..


Verse
D#|---------------------|-------------------|
A#|---------------------|-------------------|
F#|---------------------|-------------------|
C#|---------------------|----------7--------|
G#|-00-0--8-5-7---------|-00-0-8-5----------|
C#|-00-0--------0-10h12-|-00-0-------0-8h10-|
PM  ..                    ..

continued...

D#|--------------------|---------------------|
A#|--------------------|---------------------|
F#|--------------------|---------------------|
C#|--------------------|---------------------|
G#|-00-0-8-5-7---------|-55-5-55-5-88-8-88-8-|
C#|-00-0-------0-10h12-|-55-5-55-5-88-8-88-8-|
PM  ..                   ..   ..   ..   ..

continued...

D#|---------------------|-------------------|
A#|---------------------|-------------------|
F#|---------------------|-------------------|
C#|---------------------|----------7--------|
G#|-00-0--8-5-7---------|-00-0-8-5----------|
C#|-00-0--------0-10h12-|-00-0-------0-8h10-|
PM  ..                    ..

continued...

D#|---------------------|--------------------------------------|
A#|---------------------|--------------------------------------|
F#|---------------------|--------------------------------------|
C#|---------------------|-7h8p7----5h7p5-----------------------|
G#|-00-0--8-5-7---------|------8p7------8p7-7h8p7-----5h7p5----|
C#|-00-0--------0-10h12-|------------------------10p8------8p7-|
PM  ..

Rest
D#|---|
A#|---|
F#|---|
C#|-0-|Ring this for a while
G#|-0-|
C#|-0-|


Breakdown A
D#|----------------------------|  |-----|
A#|----------------------------|  |-----|
F#|----------------------------|  |-----|
C#|----------------------------|  |-----|
G#|-0-0000-0-0000-0-0000-0-0000|x2|-----|
C#|-0-0000-0-0000-0-0000-0-0000|  |-3*b-|
PM    ....   ....   ....   ....

Breakdown B

D#|----------------------------------|
A#|----------------------------------|
F#|----------------------------------|
C#|----------------------------------|
G#|----------------------------------|
C#|-0-0000-0-0000-3p0-00-0h3h5-0h3h5-|x4
PM    ....   ....     ..


Interlude
D#|---------------------------------------------|
A#|---------------------------------------------|
F#|---------------------------------------------|
C#|---------------------------------------------|
G#|-----7-8-----8-10-----8p7p0-10p8p7-8p7p0-5h7-|
C#|-000-----000------000------------------------|
PM  ...     ...      ...
continued...
D#|-----------------------------------------------------|
A#|-----------------------------------------------------|
F#|-----------------------------------------------------|
C#|-----------------------------------------------------|
G#|-----7-8-----8-10-----12h13p12-10h12p10-8h10p8-7h8p7-|
C#|-000-----000------000--------------------------------|
PM  ...     ...      ...

continued...

D#|---------------------------------------------|
A#|---------------------------------------------|
F#|---------------------------------------------|
C#|---------------------------------------------|
G#|-----7-8-----8-10-----8p7p0-10p8p7-8p7p0-5h7-|
C#|-333-----555------777------------------------|
PM  ...     ...      ...

continued...

D#|--------------------------------------------|
A#|--------------------------------------------|
F#|--------------------------------------------|
C#|--------------------------------------------|
G#|-------------12h13p12-10h12p10-8h10p8-7h8p7-|
C#|-000-000-000--------------------------------|
PM  ... ... ...


Pre Solo A
D#|--------------------------------|
A#|--------------------------------|
F#|--------------------------------|
C#|-0-----0------------------------|
G#|-0-000-0-000-12-12-12-10--10-10-|
C#|-0-000-0-000-8--8--8--8---8--8--|
PM    ...   ...

continued...

D#|--------------------------------|
A#|--------------------------------|
F#|--------------------------------|
C#|-0-----0-----7-7-7--7-7-7-------|
G#|-0-000-0-000-5-5-5--8-8-8-------|
C#|-0-000-0-000-5-5-5--5-5-5-------|
PM    ...   ...

continued...

D#|--------------------------------|
A#|--------------------------------|
F#|--------------------------------|



C#|-0-----0------------------------|
G#|-0-000-0-000-12-12-12-10--10-10-|
C#|-0-000-0-000-8--8--8--8---8--8--|
PM    ...   ...

continued...

D#|--------------------------------|
A#|--------------------------------|
F#|--------------------------------|
C#|-0-----0-----5-5-5--------------|
G#|-0-000-0-000-3-3-3--5-5-5-------|
C#|-0-000-0-000-3-3-3--3-3-3-------|
PM    ...   ...

Pre Solo B

D#|----------------------------------|
A#|----------------------------------|
F#|----------------------------------|
C#|---------------------7-7-7--7-7-7-|
G#|-12-12-12--10-10-10--5-5-5--8-8-8-|
C#|-8--8--8---8--8--8---5-5-5--5-5-5-|


Solo A1
[Rhythm]
D#|--------------------------|
A#|--------------------------|
F#|--------------------------|
C#|-0~~~~~~~~~5~~~~~~3~~~~~~-|
G#|-0~~~~~~~~~5~~~~~~3~~~~~~-|
C#|-0~~~~~~~~~5~~~~~~3~~~~~~-|

[Lead]
D#|--------------------------|
A#|--------------------------|
F#|-7tr~~~~~~~9tr~~~~10tr~~~-|
C#|--------------------------|
G#|--------------------------|
C#|--------------------------|

Solo A2
[Rhythm]
D#|--------|  |--------|  |--------|  |
A#|--------|  |--------|  |--------|  |
F#|--------|x4|--------|x2|--------|x2|
C#|-0------|  |-5------|  |-3------|  |
G#|-0-0000-|  |-5-5555-|  |-3-3333-|  |
C#|-0-0000-|  |-5-5555-|  |-3-3333-|  |
PM    ....        ....        ....

[Lead]
D#|--------------------------|
A#|--------------------------|
F#|-7tr~~~~~~~9tr~~~~10tr~~~-|
C#|--------------------------|
G#|--------------------------|
C#|--------------------------|


Solo B
[Rhythm]
D#|--------|  |--------|  |--------|  |-----|
A#|--------|  |--------|  |--------|  |-----|
F#|--------|x4|--------|x2|--------|x2|-----|
C#|--------|  |--------|  |--------|  |-----|
G#|-0-0000-|  |-5-5555-|  |-3-3333-|  |-----|
C#|-0-0000-|  |-5-5555-|  |-3-3333-|  |-3*b-|
PM    ....        ....        ....

[Lead]
D#|-t------t-t------t-t------t-|
A#|-15p13p11-17p13p11-18p13p11-|
F#|----------------------------|
C#|----------------------------|
G#|----------------------------|
C#|----------------------------|


Outro
[Rhythm]
D#|--------|  |--------|  |--------|  |-----|
A#|--------|  |--------|  |--------|  |-----|
F#|--------|x4|--------|x2|--------|x2|-----|
C#|--------|  |--------|  |--------|  |-----|
G#|-0-0000-|  |-5-5555-|  |-3-3333-|  |-----|
C#|-0-0000-|  |-5-5555-|  |-3-3333-|  |-3*b-|
PM    ....        ....        ....


[Lead]
D#|-----------------------------------------|
A#|-----------------------------------------|
F#|-10-9-10--10-9-10--14-10-14-10-12-9-12-9-|
C#|-----------------------------------------|
G#|-----------------------------------------|
C#|-----------------------------------------|

-------------------------
Song Order:              |
Intro/Chorus         x2  |
Verse                x4  |
Intro/Chorus         x2  |
Rest                 x1  |
Breakdown A          x1  |
Breakdown B          x12 |
Interlude            x2  |
Pre Solo A           x2  |
Pre Solo B           x1  |
Solo A1              x2  |
Solo A2              x2  |
Solo B               x4  |
Outro                x4  |
===========================================================
===========================================================
06. Memories

This song is all piano. I may tab it as guitar at some
point.

===========================================================
===========================================================
07. An Ode To Nothing
TUNING: C#G#C#F#A#D#

Intro A - Clean
D#|-----------------||-----------------|
A#|----10~-----10~--||----6~~-----5~~--|
F#|----10~-----10~--||----5~~-----5~~--|
C#|----8~~-----8~~--||----7~~-----7~~--|
G#|----8~~-----8~~--||----5~~-----5~~--|
C#|-8--8~~--8--8~~--||-0--0~~--0--0~~--|


Intro B - Clean
[Rhythm]
D#|---------------------------|
A#|----10---------8---------6-|
F#|----10---------5---------5-|
C#|----8----------7---------7-|
G#|----8----------5---------5-|
C#|-8--8---8-7-5--5--5-3-0--0-|

[Lead]
D#|-------------------------|-------------------------|
A#|-------17-------17----17-|-------17-------17----17-|
F#|-19-19----19-19----19----|-18-18----18-18----18----|
C#|-------------------------|-------------------------|
G#|-------------------------|-------------------------|
C#|-------------------------|-------------------------|

continued...

D#|-------------------------|-------------------------|
A#|-------17-------17----17-|-------17-----18-17-15---|
F#|-17-17----17-17----17----|-17-17----17-------------|
C#|-------------------------|-------------------------|
G#|-------------------------|-------------------------|
C#|-------------------------|-------------------------|


Intro C - Clean
[Rhythm]
D#|----------------------------------|
A#|----------------------------------|
F#|----------------------------------|
C#|-3--3--3/5-5--5--5/8-8--8--8p0~~~-|
G#|-3--3--3/5-5--5--5/8-8--8--8p0~~~-|
C#|-3--3--3/5-5--5--5/8-8--8--8p0~~~-|

[Lead}
D#|----------20--------------------17--------|
A#|----18-------18----18-----18----------18--|
F#|-19----19-------19-----15----15----15-----|
C#|------------------------------------------|
G#|------------------------------------------|
C#|------------------------------------------|

continued...

D#|-------12~-----------13-12-------|
A#|----13---------------------10h12-|
F#|-10---------7h9-9h10-------------|
C#|---------------------------------|
G#|---------------------------------|
C#|---------------------------------|


[Intro B with lead playing melody over the top]


Intro D - Distortion
D#|--------------------------------------------|
A#|--------------------------------------------|
F#|--------------------------------------------|
C#|-----10------10----10------10-----101010/12-|
G#|-0-0-8---000-8---0-8---0-0-8---00-8-8-8-/10-|
C#|-0-0-8---000-8---0-8---0-0-8---00-8-8-8-/10-|
PM  . .     ...     .     . .     ..


Pre Solo
[Rhythm]
D#|-------------------------|
A#|-------------------------|
F#|-------------------------|
C#|-------------------------|
G#|-00000000000000000000000-|
C#|-00000000000000000000000-|
PM  .......................

[Lead]
D#|------------------------------------------------|
A#|------------------------------------------------|
F#|------------------------------------------------|
C#|-1212121212121212121212121212121212121212121212-|
G#|------------------------------------------------|
C#|------------------------------------------------|
PM  Release Muting>>>>>>>>>>>>>>>>>>>>>>>>>>>>>>>>

continue...

[Lead]
D#|-----------------------|
A#|-----------------------|
F#|-------10h12-12b-12p10-|
C#|-10h12-----------------|
G#|-----------------------|
C#|-----------------------|


Solo
[Rhythm]
D#|-------------------------------|---------------------------------|
A#|-------------------------------|---------------------------------|
F#|-------------------------------|---------------------------------|
C#|-0--3-0-3-5-3-0--3-0-8--8-8-10-|-0--3-0-3-5-3-0--3-0-10--10-10-8-|
G#|-0--3-0-3-5-3-0--3-0-8--8-8-10-|-0--3-0-3-5-3-0--3-0-10--10-10-8-|
C#|-0--3-0-3-5-3-0--3-0-8--8-8-10-|-0--3-0-3-5-3-0--3-0-10--10-10-8-|

[Lead]
D#|-------------17b--------------------------------------------|
A#|--------18h20----20p18-----18h20----------------------------|
F#|-15/19-----------------19-------17h19-19p17h19--------------|
C#|----------------------------------------------15h17---------|
G#|---------------------------------------------------15h17-17-|
C#|------------------------------------------------------------|

D#|---------------------------------------------|
A#|-18h20p18------------------------------------|
F#|---------17h19-19-19p17----------------------|
C#|-----------------------17p15-----------15h17-|
G#|----------------------------17p15-15h17------|
C#|---------------------------------------------|

D#|-----------------------------------------------------------|
A#|-----------------------------------------------------------|
F#|-----------------------------------------------------------|
C#|------10h12-12--15-14-12-14-15-14-12-14-15b-15-15p14p12p10-|
G#|-10h12-----------------------------------------------------|
C#|-----------------------------------------------------------|

D#|-----------------------------------------------------------|
A#|-----------------------------14b---------------------------|
F#|------------12-10-12p10p7-12-----12p10p7-12p10p7-12p10p7-7-|
C#|------10h12------------------------------------------------|
G#|-10h12-----------------------------------------------------|
C#|-----------------------------------------------------------|

D#|-10h13p10--------|  |15^--15p13-15-13-10--10h13--------------------|
A#|---------10h13p10|x8|--------------------------10h13---------------|
F#|-----------------|  |-------------------------------10h12----------|
C#|-----------------|  |------------------------------------10h12-----|
G#|-----------------|  |-----------------------------------------10h12|
C#|-----------------|  |----------------------------------------------|

D#|-------------------------------------------|
A#|-------------------------------------------|
F#|-----------10h12----------------10h12------|
C#|------10h12-----10h12------10h12-----10h12-|
G#|-10h12----------------10h12----------------|
C#|-------------------------------------------|

D#|----------------------------------|
A#|----------------------------------|
F#|-----------10h12------------------|
C#|------10h12-----10h12-14-12-10-10-|
G#|-10h12----------------------------|
C#|----------------------------------|

D#|-------------------------------------------------|
A#|-------------------------------------------------|
F#|-14p12p10-14p12p10-14p12p10-14p12p10-12p10-12p10-|
C#|-------------------------------------------------|
G#|-------------------------------------------------|
C#|-------------------------------------------------|

D#|-------------------------------------------|
A#|-------------------------------------------|
F#|-12p10-12p10-12p10-12p10-14p12p10----------|
C#|----------------------------------12-10-12~|
G#|-------------------------------------------|
C#|-------------------------------------------|


After Solo
[Rhythm]
D#|--------------------------------------------|
A#|--------------------------------------------|
F#|--------------------------------------------|
C#|-----10------10----10------10-----101010/12-|
G#|-0-0-8---000-8---0-8---0-0-8---00-8-8-8-/10-|
C#|-0-0-8---000-8---0-8---0-0-8---00-8-8-8-/10-|
PM  . .     ...     .     . .     ..

[Lead]
D#|------------------------------------------------|
A#|------------------------------------------------|
F#|---------------------------10----12-10----------|
C#|------------------------------12-------12-10-12~|
G#|------------------------------------------------|
C#|------------------------------------------------|


Pre Verse

 ------------------------------------------
|Hold the last chord of the rhythm and then|
|the rhythm plays this while the lead plays|
|       a melody over the top of it.       |
 ------------------------------------------

D#|---------------------------------------|
A#|---------------------------------------|
F#|---------------------------------------|
C#|---------------------------------------|
G#|-0000-0-000000-0-000000-0-000000-10-10-|
C#|-0000-0-000000-0-000000-0-000000-10-10-|
PM  ....   ......   ......   ......

continued...

D#|--------------------------------------|
A#|--------------------------------------|
F#|--------------------------------------|
C#|--------------------------------------|
G#|-8888-8-888888-8-888888-8-888888-5----|
C#|-8888-8-888888-8-888888-8-888888-5----|
PM  ....   ......   ......   ......


Verse
D#|-----------------------------------------------------|
A#|-----------------------------------------------------|
F#|----7p0--------7p0-----------7p0--------7p0----------|
C#|-------8p7--------8p7-7h8-------8p7--------8p0-------|
G#|-00--------000------------00--------000--------10-10-|
C#|-00--------000------------00--------000--------10-10-|
PM  ..        ...            ..        ...

continued...

D#|-----------------------------------------------------|
A#|-----------------------------------------------------|
F#|----7p0--------7p0-----------7p0--------7p0----------|
C#|-------8p7--------8p7-7h8-------8p7--------8p0-------|
G#|-00--------000------------00--------000--------3--5--|
C#|-00--------000------------00--------000--------3--5--|
PM  ..        ...            ..        ...


Pre-Chorus
D#|------------|  |---------------|
A#|------------|  |---------------|
F#|------------|  |---------------|
C#|------------|  |---10-10-10-12-|
G#|-0000-0-0-0-|x3|-0-8--8--8--10-|x1
C#|-0000-0-0-0-|  |-0-8--8--8--10-|
PM  .... . . .      .


Chorus
[Rhythm]
D#|---------------------------------------------------------------------|
A#|---------------------------------------------------------------------|
F#|---------------------------------------------------------------------|
C#|---------------------------------------------------------------------|
G#|-888888888888-5-0000000-333333-8888888888-5-0000000-3/10-101010101010|
C#|-888888888888-5-0000000-333333-8888888888-5-0000000-3/10-101010101010|
PM                                                          . . . . . .

[Lead]
D#|--------------|
A#|--------------|
F#|-10p9-10p9-12-|Just repeat this til the chorus ends.
C#|--------------|
G#|--------------|
C#|--------------|

-------------------------
Song Order:              |
Intro A              x2  |
Intro B [w/o lead]   x4  |
Intro B [w lead]     x4  |
Intro C              x4  |
Intro B [w melody]   x4  |
Intro D              x7  |
Pre Solo             x1  |
Solo [Rhythm]        x4  |
After Solo           x4  |
Pre Verse            x2  |
Verse                x4  |
Pre Chorus           x4  |
Chorus               x2  |
Verse                x2  |
Pre Chorus           x8  |
Intro D              x4  |
Solo [w/o lead]      x4  |
Chorus               x2  |
===========================================================
===========================================================
08. Exhale
TUNING: C#G#C#F#A#D#


Intro - Light Distortion
[Rhythm]
D#|-----------------------------|--------------------------------|
A#|-----------------------------|--------------------------------|
F#|-----------------------------|--------------------------------|
C#|----7----7----7----7----7----|----7----7-----------7------8-7-|
G#|-55---55---55---55---55---55-|-88---88---88-101010---1010-----|
C#|-----------------------------|--------------------------------|

[After 4 repeats, lead guitar plays this]

[Lead] - Clean
D#|-17-17-17-15-15-15------------------|
A#|-------------------17-17-17-18(x12)-|
F#|------------------------------------|
C#|------------------------------------|
G#|------------------------------------|
C#|------------------------------------|


Chorus - Heavy Distortion
[Rhythm]
D#|-----------------------------------------|
A#|-----------------------------------------|
F#|-----------------------------------------|
C#|-----------------------------------------|
G#|-0000-0000-0000-0000-5555-5555-8888-8888-|
C#|-0000-0000-0000-0000-5555-5555-8888-8888-|

continued...

D#|----------------------------------------------------------|
A#|----------------------------------------------------------|
F#|----------------------------------------------------------|
C#|----------------------------------------------------------|
G#|-0000-0000-10101010-10101010-5555-5555-8888-8888-10101010-|
C#|-0000-0000-10101010-10101010-5555-5555-8888-8888-10101010-|

[Lead]
D#|-17-17-17-15-15-15------------------|
A#|-------------------17-17-17-18(x12)-|
F#|------------------------------------|
C#|------------------------------------|
G#|------------------------------------|
C#|------------------------------------|

-------------------------
Song Order:             |
Intro                x8 | 
Chorus               x2 |
Verse [Untabbed]        |
Intro                x4 | 
Chorus               x8 |
Chorus[Muted Rythm]  x8 |
===========================================================
===========================================================

That's the entire album!

Check them out here.
www.myspace.com/inhalethesea/

 -----------------------
|KEY:                   |
|    h = hammer-on      |
|    p = pull-off       |
|    / = slide up       |
|    \ = slide down     |
|    b = quick bend     |
|    ^ = hold bend      |
|    * = pinch harmonic |
 -----------------------
comments
We did not receive enough feedback on this tab! Please rate:
print report bad tab
1 2 3 4 5
I want to post or [tab]
guest
You may want to rate the tab now too:
select rating
Please do not post tabs as comments. Select "correction" instead!