Oops, an error
Loading. Please wait.

Jacob Popowski - Cosmic Wasteland Tab

285 views 1 this week
no commentswrite comment
1 2 3 4 5
please rate
add to favorites launch autoscroll
font size
0
reset
Autoscroll
+/-
esc
set tempo
stop
Contributor
WARNING: You are trying to view
                                    content from Ultimate-Guitar.com
                                    in an unauthorized application,
                                    which is prohibited.

                                    Please use an official Ultimate
                                    Guitar Tabs application for iPhone,
                                    iPad or Android to access legitimate
                                    chords, guitar, bass, and drum tabs
                                    from Ultimate-Guitar.com database.

                                    Type "ultimate guitar tabs" in Apple
                                    App Store's or Android Market's
                                    search to find the application.
               COSMIC WASTELAND
ALBUM BY: Jacob Popowski


Songs:
1.This is war (SHORTEST SONG EVER, EVEN SHORTER THEN YOU SUFFER BY N.D. :))
2.Cosmic Wasteland
3.Forsaken
4.Professional Help
5.Nevermore
6.War Within 







                   This is war
e|---------------------------------------------------------------------------|
B|---------------------------------------------------------------------------|
G|---------------------------------------------------------------------------|
D|-4-4-4--2------------------------------------------------------------------|
A|-4-4-4--2------------------------------------------------------------------|
E|-2-2-2--0------------------------------------------------------------------|
THIS IS WAR!!!


____________________________________________________________________________

                        Cosmic Wasteland

e|---------------------------------------------------------------------------|
B|17B-17~--17-15-13-13h15p13~-13/10-10h12~~--12p10/8~--------17-17-17-17~----|
G|---------------------------------------------------------------------------|
D|---------------------------------------------------------------------------|
A|---------------------------------------------------------------------------|
E|---------------------------------------------------------------------------|


e|-----------------------------------------13H15T19P15P13--------------------|
B|-17-15-13-13H15H17~~~--17-15-13-13H15H17----------------17-15-13-13H15~-13~|
G|---------------------------------------------------------------------------|
D|---------------------------------------------------------------------------|
A|---------------------------------------------------------------------------|
E|---------------------------------------------------------------------------|

e|---------------------------------------------------------------------------|
B|17B-17~--17-15-13-13h15p13~-13/10-10h12~~--12p10/8~--------17-17-17-17~----|
G|---------------------------------------------------------------------------|
D|---------------------------------------------------------------------------|
A|---------------------------------------------------------------------------|
E|---------------------------------------------------------------------------|


e|-----------------------------------------13H15T19P15P13--------------------|
B|-17-15-13-13H15H17~~~--17-15-13-13H15H17----------------17-15-13-13H15~-13~|
G|---------------------------------------------------------------------------|
D|---------------------------------------------------------------------------|
A|---------------------------------------------------------------------------|
E|---------------------------------------------------------------------------|


e|-----------------------13H15H17P15P13-----------------13H15H17P15P13-------|
B|-17~~~--17P15P13H15H17----------------17P15P13H15H17-----------------------|
G|---------------------------------------------------------------------------|
D|---------------------------------------------------------------------------|
A|---------------------------------------------------------------------------|
E|---------------------------------------------------------------------------|


e|----------------13H15H17P15P13----------------13H15H17P15P13---------------|
B|-17P15P13H15H17----------------17P15P13H15H17------------------------------|
G|---------------------------------------------------------------------------|
D|---------------------------------------------------------------------------|
A|---------------------------------------------------------------------------|
E|---------------------------------------------------------------------------|


e|----------------13H15H17P15P13---------------------------------------------|
B|-17P15P13H15H17----------------17-15-13-15H17T19P17------------------------|
G|---------------------------------------------------------------------------|
D|---------------------------------------------------------------------------|
A|---------------------------------------------------------------------------|
E|---------------------------------------------------------------------------|


e|---------------------------------------------------------------------------|
B|17B-17~--17-15-13-13h15p13~-13/10-10h12~~--12p10/8~--------17-17-17-17~----|
G|---------------------------------------------------------------------------|
D|---------------------------------------------------------------------------|
A|---------------------------------------------------------------------------|
E|---------------------------------------------------------------------------|


e|-----------------------------------------13H15T19P15P13--------------------|
B|-17-15-13-13H15H17~~~--17-15-13-13H15H17----------------17-15-13-13H15~-13~|
G|---------------------------------------------------------------------------|
D|---------------------------------------------------------------------------|
A|---------------------------------------------------------------------------|
E|---------------------------------------------------------------------------|


e|---------------------------------------------------------------------------|
B|17B-17~--17-15-13-13h15p13~-13/10-10h12~~--12p10/8~--------17-17-17-17~----|
G|---------------------------------------------------------------------------|
D|---------------------------------------------------------------------------|
A|---------------------------------------------------------------------------|
E|---------------------------------------------------------------------------|


e|-----------------------------------------13H15T19P15P13--------------------|
B|-17-15-13-13H15H17~~~--17-15-13-13H15H17----------------17-15-13-13H15~-13~|
G|---------------------------------------------------------------------------|
D|---------------------------------------------------------------------------|
A|---------------------------------------------------------------------------|
E|---------------------------------------------------------------------------|


e|-------------------------13h15--17tr15p13-----------------------17-15------|
B|-17~~~-17-15-13-13h15h17------------------17-15-13h15-17p15~-17------------|
G|---------------------------------------------------------------------------|
D|---------------------------------------------------------------------------|
A|---------------------------------------------------------------------------|
E|---------------------------------------------------------------------------|

           
e|-13h15p13~-13/10-10h12-12p10/8---------------------------------------------|
B|---------------------------------------------------------------------------|
G|---------------------------------------------------------------------------|
D|---------------------------------------------------------------------------|
A|---------------------------------------------------------------------------|
E|---------------------------------------------------------------------------|


e|-----------------------13H15H17P15P13-----------------13H15H17P15P13-------|
B|-17~~~--17P15P13H15H17----------------17P15P13H15H17-----------------------|
G|---------------------------------------------------------------------------|
D|---------------------------------------------------------------------------|
A|---------------------------------------------------------------------------|
E|---------------------------------------------------------------------------|


e|----------------13H15H17P15P13----------------13H15H17P15P13---------------|
B|-17P15P13H15H17----------------17P15P13H15H17------------------------------|
G|---------------------------------------------------------------------------|
D|---------------------------------------------------------------------------|
A|---------------------------------------------------------------------------|
E|---------------------------------------------------------------------------|


e|----------------13H15H17P15P13---------------------------------------------|
B|-17P15P13H15H17----------------17-15-13-15H17T19P17------------------------|
G|---------------------------------------------------------------------------|
D|---------------------------------------------------------------------------|
A|---------------------------------------------------------------------------|
E|---------------------------------------------------------------------------|


e|---------------------------------------------------------------------------|
B|17B-17~--17-15-13-13h15p13~-13/10-10h12~~--12p10/8~--------17-17-17-17~----|
G|---------------------------------------------------------------------------|
D|---------------------------------------------------------------------------|
A|---------------------------------------------------------------------------|
E|---------------------------------------------------------------------------|


e|-----------------------------------------13H15T19P15P13--------------------|
B|-17-15-13-13H15H17~~~--17-15-13-13H15H17----------------17-15-13-13H15~-13~|
G|---------------------------------------------------------------------------|
D|---------------------------------------------------------------------------|
A|---------------------------------------------------------------------------|
E|---------------------------------------------------------------------------|


e|---------------------------------------------------------------------------|
B|17B-17~--17-15-13-13h15p13~-13/10-10h12~~--12p10/8~--------17-17-17-17~----|
G|---------------------------------------------------------------------------|
D|---------------------------------------------------------------------------|
A|---------------------------------------------------------------------------|
E|---------------------------------------------------------------------------|


e|-----------------------------------------13H15T19P15P13--------------------|
B|-17-15-13-13H15H17~~~--17-15-13-13H15H17----------------17-15-13-13H15~-13~|
G|---------------------------------------------------------------------------|
D|---------------------------------------------------------------------------|
A|---------------------------------------------------------------------------|
E|---------------------------------------------------------------------------|


e|-------------------------13h15--17tr15p13-----------------------17-15------|
B|-17~~~-17-15-13-13h15h17------------------17-15-13h15-17p15~-17------------|
G|---------------------------------------------------------------------------|
D|---------------------------------------------------------------------------|
A|---------------------------------------------------------------------------|
E|---------------------------------------------------------------------------|

           
e|-13h15p13~-13/10-10h12-12p10/8---------------------------------------------|
B|---------------------------------------------------------------------------|
G|---------------------------------------------------------------------------|
D|---------------------------------------------------------------------------|
A|---------------------------------------------------------------------------|
E|---------------------------------------------------------------------------|

acoustic part
e|---------------------------------------------------------------------------|
B|---------------------------------------------------------------------------|
G|-7-7-8-9-7-9-5-5-6-7-5-7-7-7-8-9-7-9-5--555--3--222-0----------------------|
D|---------------------------------------------------------------------------|
A|-5-----------3-----------5-----------3--333--1--000-0----------------------|
E|---------------------------------------------------------------------------|

end acoustic, electric in bridge position
e|---------------------------------------------------------------------------|
B|17B-17~--17-15-13-13h15p13~-13/10-10h12~~--12p10/8~--------17-17-17-17~----|
G|---------------------------------------------------------------------------|
D|---------------------------------------------------------------------------|
A|---------------------------------------------------------------------------|
E|---------------------------------------------------------------------------|


e|-----------------------------------------13H15T19P15P13--------------------|
B|-17-15-13-13H15H17~~~--17-15-13-13H15H17----------------17-15-13-13H15~-13~|
G|---------------------------------------------------------------------------|
D|---------------------------------------------------------------------------|
A|---------------------------------------------------------------------------|
E|---------------------------------------------------------------------------|


e|---------------------------------------------------------------------------|
B|17B-17~--17-15-13-13h15p13~-13/10-10h12~~--12p10/8~--------17-17-17-17~----|
G|---------------------------------------------------------------------------|
D|---------------------------------------------------------------------------|
A|---------------------------------------------------------------------------|
E|---------------------------------------------------------------------------|


e|-----------------------------------------13H15T19P15P13--------------------|
B|-17-15-13-13H15H17~~~--17-15-13-13H15H17----------------17-15-13-13H15~-13~|
G|---------------------------------------------------------------------------|
D|---------------------------------------------------------------------------|
A|---------------------------------------------------------------------------|
E|---------------------------------------------------------------------------|


e|-------------------------13h15--17tr15p13-----------------------17-15------|
B|-17~~~-17-15-13-13h15h17------------------17-15-13h15-17p15~-17------------|
G|---------------------------------------------------------------------------|
D|---------------------------------------------------------------------------|
A|---------------------------------------------------------------------------|
E|---------------------------------------------------------------------------|

           
e|-13h15p13~-13/10-10h12-12p10/8----------0----------------------------------|
B|---------------------------------------0-0---------------------------------|
G|--------------------------------------0---0--------------------------------|
D|-------------------------------------2-----2---2----------2-------222-0----|
A|------------------------------------2-------2--2----------2-------222-0----|
E|-----------------------------------0---------0-0----------0-------000-0----|



           
e|15trt17---15trt19--15trt20--15trt19--15trt17-t19~~~~~----------------------|
B|---------------------------------------------------------------------------|
G|---------------------------------------------------------------------------|
D|---------------------------------------------------------------------------|
A|---------------------------------------------------------------------------|
E|---------------------------------------------------------------------------|


e|---------------------------------------------------------------------------|
B|17B-17~--17-15-13-13h15p13~-13/10-10h12~~--12p10/8~--------17-17-17-17~----|
G|---------------------------------------------------------------------------|
D|---------------------------------------------------------------------------|
A|---------------------------------------------------------------------------|
E|---------------------------------------------------------------------------|


e|-----------------------------------------13H15T19P15P13--------------------|
B|-17-15-13-13H15H17~~~--17-15-13-13H15H17----------------17-15-13-13H15~-13~|
G|---------------------------------------------------------------------------|
D|---------------------------------------------------------------------------|
A|---------------------------------------------------------------------------|
E|---------------------------------------------------------------------------|


e|---------13-15----------------13-15-17-15-13-------------------------------|
B|13-15-17-------17-15-13-15-17----------------17-15-13h15p13~~~-------------|
G|---------------------------------------------------------------------------|
D|-----------------------------------------------------------------2---------|
A|-----------------------------------------------------------------2---------|
E|-----------------------------------------------------------------0---------|

Sabbath like moment
e|--------------------------------------------------0---------------0--------|
B|-------------------------------------------------0-0-------------1-1-------|
G|------------------------------------------------0---0-----------0---0------|
D|---------------------------2----------2--------2-----2----2----2-----2-----|
A|---------------------------2----------2-------2-------2---2---3-------3----|
E|-0--------3/5------0-------0--0--3/5--0------0---------0--0--0---------0---|


e|---------------------------------------------------------------------------|
B|---------------------------------------------------------------------------|
G|---------------------------------------------------------------------------|
D|-2-------------------------------------------------------------------------|
A|-2-------------------------------------------------------------------------|
E|-0------4/17/4/17--------------0-------------------------------------------|


back to riff
e|---------------------------------------------------------------------------|
B|17B-17~--17-15-13-13h15p13~-13/10-10h12~~--12p10/8~--------17-17-17-17~----|
G|---------------------------------------------------------------------------|
D|---------------------------------------------------------------------------|
A|---------------------------------------------------------------------------|
E|---------------------------------------------------------------------------|


e|-----------------------------------------13H15T19P15P13--------------------|
B|-17-15-13-13H15H17~~~--17-15-13-13H15H17----------------17-15-13-13H15~-13~|
G|---------------------------------------------------------------------------|
D|---------------------------------------------------------------------------|
A|---------------------------------------------------------------------------|
E|---------------------------------------------------------------------------|


e|-----------------------13H15H17P15P13-----------------13H15H17P15P13-------|
B|-17~~~--17P15P13H15H17----------------17P15P13H15H17-----------------------|
G|---------------------------------------------------------------------------|
D|---------------------------------------------------------------------------|
A|---------------------------------------------------------------------------|
E|---------------------------------------------------------------------------|


e|----------------13H15H17P15P13----------------13H15H17P15P13---------------|
B|-17P15P13H15H17----------------17P15P13H15H17------------------------------|
G|---------------------------------------------------------------------------|
D|---------------------------------------------------------------------------|
A|---------------------------------------------------------------------------|
E|---------------------------------------------------------------------------|


e|----------------13H15H17P15P13---------------------------------------------|
B|-17P15P13H15H17----------------17-15-13-15H17T19P17~-----------------------|
G|---------------------------------------------------------------------------|
D|---------------------------------------------------------------------------|
A|---------------------------------------------------------------------------|
E|---------------------------------------------------------------------------|


e|15trt17---15trt19--15trt20--15trt19--15trt17-t19~~~~~----------------------|
B|---------------------------------------------------------------------------|
G|---------------------------------------------------------------------------|
D|---------------------------------------------------------------------------|
A|---------------------------------------------------------------------------|
E|---------------------------------------------------------------------------|


e|---------------13h15h17p15p13---------------13h15h17p15p13-----------------|
B|-17p15p13h15h17--------------17p15p13h15h17---------------17p15p13h15h17---|
G|---------------------------------------------------------------------------|
D|---------------------------------------------------------------------------|
A|---------------------------------------------------------------------------|
E|---------------------------------------------------------------------------|


e|-13h15h17p15p13----------------13h15h17p15p13----------------15h17h19p17p15|
B|----------------17p15p13h15h13----------------19p17p15h17h19---------------|
G|---------------------------------------------------------------------------|
D|---------------------------------------------------------------------------|
A|---------------------------------------------------------------------------|
E|---------------------------------------------------------------------------|


e|---------------15h17h19p17p15----------------15h17h19p17p15----------------|
B|19p17p15h17h19----------------19p17p15h17h19---------------19p17p15h17h19--|
G|---------------------------------------------------------------------------|
D|---------------------------------------------------------------------------|
A|---------------------------------------------------------------------------|
E|---------------------------------------------------------------------------|


e|-15h17h19p17p15----------------13h15h17p15p13----------------13h15h17p15p13|
B|----------------17p15p13h15h17----------------17p15p13h15h17---------------|
G|---------------------------------------------------------------------------|
D|---------------------------------------------------------------------------|
A|---------------------------------------------------------------------------|
E|---------------------------------------------------------------------------|


e|----------------13h15h17p15p13----------------13h15h17p15p13---------------|
B|-17p15p13h15h17----------------17p15p13h15h17------------------------------|
G|---------------------------------------------------------------------------|
D|---------------------------------------------------------------------------|
A|---------------------------------------------------------------------------|
E|---------------------------------------------------------------------------|


e|---------------------------------------------12-17p12----------------------|
B|------------12-17p12-----------------------13---------13-------------------|
G|---------13----------13------------------14--------------14----------------|
D|-------14---------------14-------------14-------------------14-------------|
A|-----14--------------------14----12h15-------------------------15----------|
E|12h15-------------------------15-------------------------------------------|


e|--------------------------------------------------15-19--------------------|
B|--------------15-20p15-------------------------16--------------------------|
G|-----------16----------16-------------------17-----------------------------|
D|--------17----------------17-------------17--------------------------------|
A|------17---------------------17----15h18-----------------------------------|
E|15h18---------------------------18-----------------------------------------|


e|-19-17-19-15-19-14-19-15-19-17-19-15-19-17-19-15-19-17-19-15-19-14-19-15---|
B|---------------------------------------------------------------------------|
G|---------------------------------------------------------------------------|
D|---------------------------------------------------------------------------|
A|---------------------------------------------------------------------------|
E|---------------------------------------------------------------------------|


e|-19-17-19-15-19-17-19-15-17-15-17-14-17-12-17-14-17-15-17-14-17-15-17-14---|
B|---------------------------------------------------------------------------|
G|---------------------------------------------------------------------------|
D|---------------------------------------------------------------------------|
A|---------------------------------------------------------------------------|
E|---------------------------------------------------------------------------|


e|15-14-15-13-15-12-15-13-15-14-15-13-15-14-15-13-15p13p12-------------------|
B|---------------------------------------------------------15p13p12----------|
G|------------------------------------------------------------------15p13p12-|
D|---------------------------------------------------------------------------|
A|---------------------------------------------------------------------------|
E|---------------------------------------------------------------------------|


e|---------------------------------------------------------------------------|
B|---------------------------------------------------------------------------|
G|---------------------------------------------------------------------------|
D|-15p13p12---------------------2--------------------------------------------|
A|----------15p13p12------------2--------------------------------------------|
E|-------------------15p13p12---0--------------------------------------------|

          Start fade, fade out with next bars repeat if wanted
e|---------------------------------------------------------------------------|
B|17B-17~--17-15-13-13h15p13~-13/10-10h12~~--12p10/8~--------17-17-17-17~----|
G|---------------------------------------------------------------------------|
D|---------------------------------------------------------------------------|
A|---------------------------------------------------------------------------|
E|---------------------------------------------------------------------------|


e|-----------------------------------------13H15T19P15P13--------------------|
B|-17-15-13-13H15H17~~~--17-15-13-13H15H17----------------17-15-13-13H15~-13~|
G|---------------------------------------------------------------------------|
D|---------------------------------------------------------------------------|
A|---------------------------------------------------------------------------|
E|---------------------------------------------------------------------------|

e|---------------------------------------------------------------------------|
B|17B-17~--17-15-13-13h15p13~-13/10-10h12~~--12p10/8~--------17-17-17-17~----|
G|---------------------------------------------------------------------------|
D|---------------------------------------------------------------------------|
A|---------------------------------------------------------------------------|
E|---------------------------------------------------------------------------|


e|-----------------------------------------13H15T19P15P13--------------------|
B|-17-15-13-13H15H17~~~--17-15-13-13H15H17----------------17-15-13-13H15~-13~|
G|---------------------------------------------------------------------------|
D|---------------------------------------------------------------------------|
A|---------------------------------------------------------------------------|
E|---------------------------------------------------------------------------|

____________________________________________________________________________

                       Forsaken

                      INTRO RIFF
e|-----5-----4-----5---7-----5-----4--|-4-4-4-4-4-4-4-4-4-4------------------|
B|-7-7-7-7-7-7-7-7-7-7-7-7-7-7-7-7-7--|-7-7-7-7-7-7-7-7-7-7------------------|
G|------------------------------------|--------------------------------------|
D|play three times--------------------|---end of intro-----------------------|
A|------------------------------------|--------------------------------------|
E|------------------------------------|--------------------------------------|

                      Main Riff
e|---------------------------------------------------------------------------|
B|-------------play 4 times--------------------------------------------------|
G|---------------------------------------------------------------------------|
D|---------------------------------------------------------------------------|
A|---------------------------------------------------------------------------|
E|-0-0-5-0-0-7-0-0-5-0-0-7-0-0-5-0-7-0-5-0-0-7-0-0-5-0-0-7-0-0-12PH----------|
   . . . . . . . . . . . . . . . . . . . . . . . . . . . . . . 
             Main Riff part 2
e|---------------------------------------------------------------------------|
B|----------play twice-------------------------------------------------------|
G|---------------------------------------------------------------------------|
D|---------------------------------------------------------------2-----------|
A|---------------------------------------------------------------2-----------|
E|-0-0-5-0-0-7-0-0-3-0-0-5-0-0-1-0-3-0-0-5-0-0-7-0-0-3-0-0-5-0-0-0-----------|
   . . . . . . . . . . . . . . . . . . . . . . . . . . . . . . .
                 Interlude
e|---------------------------------------------------0-----------------------|
B|---------------------------------------------------1---------1-------------|
G|---------------------------------------------------2-------2--2------------|
D|---------------------------------------------------2-----2-----2-----------|
A|-------2----------------2-----5-3-2-3-2--------2---3---3-------------------|
E|-0-2-3---3-2-0----0-2-3---3-2-----------3~~~~--0---0-0---------------------|


e|0----------------2------------0--------------------------------------------|
B|0---------0------2-------2----1---------1-----0-----0----------------------|
G|0-------0---0----2------2-2---0-------0---0---0----0-0---------------------|
D|2-----2-------2--2-----2---2--2-----2-------2-0---0---0-2------------------|
A|2---2------------2----2-------3---3-----------2--2------2------------------|
E|0-0--------------2--2---------0-0-------------3-3-------0------------------|


e|---------------------------------------------------------------------------|
B|----------------------play 4 times, the end with only one chord instead of-|
G|------------------------------------------------------------------------3--|
D|2-x-x-x-x-5-5-x-x-x-x-7-7-x-x-x-x-9-9-9------------------------------------|
A|2-x-x-x-x-5-5-x-x-x-x-7-7-x-x-x-x-9-9-9------------------------------------|
E|0-x-x-x-x-3-3-x-x-x-x-5-5-x-x-x-x-7-7-7------------------------------------|
                      SOLO
e|---------------------------------------------12-17p12----------------------|
B|------------12-17p12-----------------------13---------13-------------------|
G|---------13----------13------------------14--------------14----------------|
D|-------14---------------14-------------14-------------------14-------------|
A|-----14--------------------14----12h15-------------------------15----------|
E|12h15-------------------------15-------------------------------------------|


e|--------------------------------------------------15-19--------------------|
B|--------------15-20p15-------------------------16--------------------------|
G|-----------16----------16-------------------17-----------------------------|
D|--------17----------------17-------------17--------------------------------|
A|------17---------------------17----15h18-----------------------------------|
E|15h18---------------------------18-----------------------------------------|


e|-19-17-19-15-19-14-19-15-19-17-19-15-19-17-19-15-19-17-19-15-19-14-19-15---|
B|---------------------------------------------------------------------------|
G|---------------------------------------------------------------------------|
D|---------------------------------------------------------------------------|
A|---------------------------------------------------------------------------|
E|---------------------------------------------------------------------------|


e|-19-17-19-15-19-17-19-15-17-15-17-14-17-12-17-14-17-15-17-14-17-15-17-14---|
B|---------------------------------------------------------------------------|
G|---------------------------------------------------------------------------|
D|---------------------------------------------------------------------------|
A|---------------------------------------------------------------------------|
E|---------------------------------------------------------------------------|


e|15-14-15-13-15-12-15-13-15-14-15-13-15-14-15-13-15p13p12-------------------|
B|---------------------------------------------------------15p13p12----------|
G|------------------------------------------------------------------15p13p12-|
D|---------------------------------------------------------------------------|
A|---------------------------------------------------------------------------|
E|---------------------------------------------------------------------------|


e|---------------------------------------------------------------------------|
B|---------------------------------------------------------------------------|
G|---------------------------------------------------------------------------|
D|-15p13p12---------------------2--------------------------------------------|
A|----------15p13p12------------2--------------------------------------------|
E|-------------------15p13p12---0--------------------------------------------|



PH- pinch harmonic


ORDER OF SONG

INTRO RIFF X3
INTRO END X1
MAIN RIFF X4
MAIN RIFF PART 2 X2
INTERLUDE X1 (LONG BREAK BEFORE CHORDS START)
MAIN RIFF X4
MAIN RIFF PART 2 X2
SOLO
STRUMMING INTERLUDE PART X6
MAIN RIFF X4
MAIN RIFF PART 2 X2 THEN FADEOUT

____________________________________________________________________________


                        Proffesional Help

Standard or 1/2 step down tuning
 Intro played at 150bpm, Main part at 200 bpm, The other part at 155 bpm, solo at 200-150 bpm.

Order
Intro x1
Main Part x3
Other part x1
Intro x1
Main part x3
Other part x1
Intro x1 minus power chords
Solo x1
fill one x1
Main part x3
Other Part x1
intro x1 minus power chords
solo 2 x1
Fill 1 x1
Main part x3
Fill 2/ Outro x1


                        Intro
e|---------------------------------------------------------------------------|
B|---------------------------------------------------------------------------|
G|---------------------------------------------------------------------------|
D|-5---5---4---4---3---3-2----5---5---4---4---3---3-2-----5---5---4---4---3--|
A|---------------------------------------------------------------------------|
E|---3---3---2---2---1----------3---3---2---2---1-----------3---3---2---2---1|


e|---------------------------------------------------------------------------|
B|---------------------------------------------------------------------------|
G|---------------------------------------------------------------------------|
D|-3----2---5-7--------------------------------------------------------------|
A|----------5-7--------------------------------------------------------------|
E|----------3-5--------------------------------------------------------------|

                     Main Part
e|---------------------------------------------------------------------------|
B|---------------------------------------------------------------------------|
G|---------------------------------------------------------------------------|
D|---------------------------------------------------------------------------|
A|---------------------------------------------------------------------------|
E|0-000-000-000-000-000-000-000-000-000-005p3p0--5p3p0-5p3p0--5p3p0-5p3p0----|
pm. ... ... ... ... ... ... ... ... ... .......  ..... .....  ..... .....

e|---------------------------------------------------------------------------|
B|---------------------------------------------------------------------------|
G|---------------------------------------------------------------------------|
D|---------------------------------5-7---------------------------------------|
A|---------------------------------5-7---------------------------------------|
E|-5p3p0--5p3p0-5p3p0--5p3p0-5p3p0-3-5---------------------------------------|
 pm.....  ..... .....  ..... .....
         The other part
e|---------------------------------------------------------------------------|
B|---------------------------------------------------------------------------|
G|---------------------------------------------------------------------------|
D|-8/7/8-5-8/7/8-5-8/7/8-8/7/8-8/7/8-10--9--7---5----------------------------|
A|-8/7/8-5-8/7/8-5-8/7/8-8/7/8-8/7/8-10--x--x---x----------------------------|
E|-6/5/6-3-6/5/6-3-6/5/6-6/5/6-6/5/6-8---7--5---3----------------------------|

    Fill One               Fill 2
e|------------------|--------------------------------------------------------|
B|------------------|--------------------------------------------------------|
G|------------------|--------------------------------------------------------|
D|-5---7------------|-0------------------------------------------------------|
A|-5---7------------|-0------------------------------------------------------|
E|-3---5------------|-0------------------------------------------------------|

                      Solo 1
e|----------------------------------14------------------------15-------------|
B|-------------------------14----13---------------------15--14---------------|
G|----------------14----13----12------------------15--14--13-----------------|
D|-------14----13----12---------------------15--14--13-----------------16----|
A|----13----12---------------------------14---13--------------------15----14-|
E|-12---------------------------------13-------------------------14----------|

                            Trem. pick 22
e|----------------------16/22-22-22-22-22-22-22-22-22-22-22-22-22-22-22-22-22|
B|-------------16----15------------------------------------------------------|
G|----16----15----14---------------------------------------------------------|
D|-15----14------------------------------------------------------------------|
A|---------------------------------------------------------------------------|
E|---------------------------------------------------------------------------|


e|-22-22-22-22-22-22-22-22-22-22-22-22-22-22br~----15p14p12------------------|
B|----------------------------------------------------------15p14p12---------|
G|-------------------------------------------------------------------15p14~--|
D|---------------------------------------------------------------------------|
A|---------------------------------------------------------------------------|
E|---------------------------------------------------------------------------|


e|---------------------------------------------------------------------------|
B|-15p14p12------------------------------------------------------------------|
G|----------15p14p12--------15p14p12-----------------------------------------|
D|-------------------15p14~----------15p14p12--------15p14p12----------------|
A|--------------------------------------------15p14~----------15p14p12-------|
E|---------------------------------------------------------------------15p14~|


e|---------------------------------------------------------------------------|
B|---------------------------------------------------------------------------|
G|---------------------------------------------------------------------------|
D|---------------------------------------------------------------------------|
A|---------------------------------------------------------------------------|
E|-0-------------------------------------------------------------------------|

            Solo 2
e|-----15p12----------12-15p12-----17p14----------14-17p14-----19p16---------|
B|-----------13----13----------13~-------15----15----------15~-------17----17|
G|--------------14--------------------------16--------------------------18---|
D|---------------------------------------------------------------------------|
A|-0-------------------------------------------------------------------------|
E|-0-------------------------------------------------------------------------|


e|16-19p16-------22~---------------------------------------------------------|
B|---------17~---------------------------------------------------------------|
G|---------------------------------------------------------------------------|
D|--------------------0------------------------------------------------------|
A|--------------------0------------------------------------------------------|
E|--------------------0------------------------------------------------------|

____________________________________________________________________________
                         NeverMore

e|-------------------------------------19-17-16-17-19-17-16-17-19-17-16-17---|
B|-------------------------19-17-16-17---------------------------------------|
G|-------------19-17-16-17---------------------------------------------------|
D|-19-17-16-17---------------------------------------------------------------|
A|---------------------------------------------------------------------------|
E|---------------------------------------------------------------------------|


e|-21~----21-19-18-19-21-19-18-19-21-19-18-19-22~------15----14--------------|
B|--------------------------------------------------------17----15-17-14-15--|
G|---------------------------------------------------------------------------|
D|---------------------------------------------------------------------------|
A|---------------------------------------------------------------------------|
E|-------------------------------------------------0-------------------------|


e|---------------------------------------------------------------------------|
B|-----14--------------------------------------------------------------------|
G|-18-----16--18-15-16----15-------------------------------------------------|
D|---------------------17----15-17-14-15----14-------------------------------|
A|---------------------------------------17----15-17-14-15----14-------------|
E|---------------------------------------------------------17----15-17-14-15-|


e|--------------------------------------------------------------12H------7H--|
B|--------------------------------------------------12H-----12H-------7H-----|
G|--------------------------------------12H-----12H-----12H--------7H--------|
D|-2------------------------12H-----12H-----12H------------------------------|
A|-2--------------------12H-----12H------------------------------------------|
E|-0----------------12H------------------------------------------------------|

e|---------12H--------------------12H------7H----------12H-------------------|
B|-----12H------------7H------12H-------7H---------12H-----------7H-----12H--|
G|-12H-------------7H-----12H--------7H--------12H------------7H----12H------|
D|--------------7H-----------------------------------------7H----------------|
A|---------------------------------------------------------------------------|
E|---------------------------------------------------------------------------|


e|-12H------------7H---------------------------------------------------------|
B|-----------7H--------7H----------------------------------------------------|
G|------7H------------------7H-----------------------------------------------|
D|-------------------------------7H------------------------------------------|
A|---------------------------------------------------------------------------|
E|---------------------------------------0-----------------------------------|


e|-------------7-----------------------------14-16-17--19-21-22~-------------|
B|-------6-8-9-----9p8p7------------13-15-16---------------------------------|
G|-5-7-8-----------------9/12-14-15------------------------------------------|
D|---------------------------------------------------------------------2-----|
A|---------------------------------------------------------------------2-----|
E|---------------------------------------------------------------------0-----|


e|---------------------------------------------12h14h15/17p15p14-------------|
B|------------------------------------12h13h15-------------------17p16p14----|
G|---------------------------12h14h15----------------------------------------|
D|-----------------12h14h15--------------------------------------------------|
A|---------12h14h15----------------------------------------------------------|
E|12h14h15-------------------------------------------------------------------|


e|-----------------------------------------12H---20TR--18TR--16TR------------|
B|-----------------------------------------12H-------------------------------|
G|-16p15p13--------------------------------12H-------------------------------|
D|----------16p15p13------------------2----12H-------------------------------|
A|--------------------15p14p12--------2----12H-------------------------------|
E|-----------------------------15~----0----12H-------------------------------|


e|-20TR-18TR-16TR-20TR-18TR-16TR-22TR--20TR-18TR-16TR-20T-18TR-16TR-20TR-----|
B|---------------------------------------------------------------------------|
G|---------------------------------------------------------------------------|
D|---------------------------------------------------------------------------|
A|---------------------------------------------------------------------------|
E|---------------------------------------------------------------------------|


e|--18TR-16TR-22TR-20TR-18TR-16TR-20TR-18TR-16TR-20TR-18TR-16TR-22TR-22-19---|
B|---------------------------------------------------------------------------|
G|---------------------------------------------------------------------------|
D|---------------------------------------------------------------------------|
A|---------------------------------------------------------------------------|
E|---------------------------------------------------------------------------|


e|-22-19----19---------------------------------------------------------------|
B|-------21----21----21------------------------------------------------------|
G|----------------22----22-19-22-19----19------------------------------------|
D|----------------------------------21----21-18-21-18----18------------------|
A|----------------------------------------------------20----20-17-20-17------|
E|----------------------------------------------------------------------19~--|

e|---------------------------------------------------------------------------|
B|---------------------------------------------------------------------------|
G|------------------------------------------------------12h14h15-------------|
D|---------------------------12h14h15----------12h14h15----------12h14h15----|
A|------------------12h14h15----------12h14h15-------------------------------|
E|-17~-15~-12h14h15----------------------------------------------------------|


e|------------------------------------12h14h15p14h15p14h15p14h15p14----------|
B|---------12h14h15----------12h14h15----------------------------------------|
G|12h14h15----------12h14h15-------------------------------------------------|
D|---------------------------------------------------------------------------|
A|---------------------------------------------------------------------------|
E|---------------------------------------------------------------------------|


e|17p16h17p16h17p16h17p16--19p18h19p18h19p18h19p18-21b-----------------------|
B|---------------------------------------------------------------------------|
G|---------------------------------------------------------------------------|
D|---------------------------------------------------------------------------|
A|---------------------------------------------------------------------------|
E|---------------------------------------------------------0-----------------|


e|-------------------------------------19---17---16----17---21b~~~~~~~~~-----|
B|-------------------------19-17-16-17---------------------------------------|
G|-------------19-17-16-17---------------------------------------------------|
D|-19-17-16-17---------------------------------------------------------------|
A|---------------------------------------------------------------------------|
E|------------------------------------------------------------------------0--|

Riff 1
e|---------------------------------------------------------------------------|
B|---------------------------------------------------------------------------|
G|---------------------------------------------------------------------------|
D|---------------------------------------------------------------------------|
A|---------------------------------------------------------------------------|
E|-0-0-00-0-0-0-0--/9~--0-0-00-0-0-0-0-/9~-0-0-00-0-0-0-0-/9~-0-0-00-0-0-0-0-|


e|---------------------------------------------------------------------------|
B|---------------------------------------------------------------------------|
G|---------------------------------------------------------------------------|
D|---------------------------------------------------------------------------|
A|-5-----------------------------------7----------------------------------5--|
E|-3-0-0-00-0-0-0-0-/9~-0-0-00-0-0-0-0-5--0-0-00-0-0-0-00-0-0-0-00-0--0-0-3--|


e|---------------------------------------------------------------------------|
B|---------------------------------------------------------------------------|
G|---------------------------------------------------------------------------|
D|---------------------------------------------------------------------------|
A|--------------------------------7--------------------------------3---------|
E|-0-0-00-0-0-0-00-0-0-0-00-0-0-0-5-0-0-00-0-0-0-00-0-0-0-00-0-0-0-1-0-0-00-0|

end of riff 1
e|-----------------------------------------------------------------|---------|
B|------------------Play Riff 1 Twice------------------------------|-Then----|
G|-----------------------------------------------------------------|---------|
D|-----------------------------------------------------------------|-3-------|
A|-----------------------3/7/5--------------------------------5/7/3|-3-------|
E|-0-0-00-0-0-0-00-0-0-0-1/5/3-0-0-00-0-0-0-00-0-0-0-00-0-0-0-3/5/1|-1-------|

Riff 2
e|---------------------------------------------------------------------------|
B|----------------------------------------------------play 6 times then riff 3
G|-15-17-14-15----14---------------------------------------------------------|
D|-------------17-----15-17-14-15----14--------------------------------------|
A|--------------------------------17----15-17-14-15--------------------------|
E|---------------------------------------------------------------------------|

                   Riff 3
e|---------------------------------------------------------------------------|
B|---------------------------------------------------------------------------|
G|--------------------------------14----15-14-17-15--------------------------|
D|--------------14----15-14-17-15----17--------------------------------------|
A|--15-14-17-15----17--------------------------------------------------------|
E|---------------------------------------------------------------------------|

                Riff 4
e|---------------------------------------------------------------------------|
B|---------------------------------------------------------------------------|
G|-15-17-14-15----14---------------------------------------------------------|
D|-------------17----15-17-14-15----14---------------------------------------|
A|-------------------------------17----15-17-14-15----14---------------------|
E|-------------------------------------------------17----15-17-14-15~~~~~/---|

           Next theme (minuet cover)
e|-----------------------12-------12-13-15-----------------------------------|
B|15-------12-13-15---------13-15-------------------13----15-13-12----12-----|
G|---12-14---------12-12-------------------12-12-------------------14--------|
D|---------------------------------------------------------------------------|
A|---------------------------------------------------------------------------|
E|---------------------------------------------------------------------------|


e|-------------------------------------------------------------12-------12-13|
B|13-12----------------12----12--------15-------12-13-15----------13-15------|
G|------14-12----12-14----12-----14-------12-14----------12-12---------------|
D|------------15-------------------------------------------------------------|
A|---------------------------------------------------------------------------|
E|---------------------------------------------------------------------------|


e|15-------------------------------------------------------------------------|
B|------------13-15-13-12----12---13-12----------12--------------------------|
G|----12-12---------------14------------14-12-14----14-12----12--------------|
D|--------------------------------------------------------15-----------------|
A|---------------------------------------------------------------------------|
E|---------------------------------------------------------------------------|


e|--19--15-17-19-15-17-----12-14----15--12-14-15-----------------------------|
B|---------------------15--------15--------------15-14-12-13--------12-14-15-|
G|-----------------------------------------------------------14--14----------|
D|---------------------------------------------------------------------------|
A|---------------------------------------------------------------------------|
E|---------------------------------------------------------------------------|


e|-12-13-15-13-12-----13---------------------------12------------------------|
B|----------------------------14-15----15-----------------------15-14-12-----|
G|-------------------------14-------------12----12---12----12----------------|
D|-------------------------------------------15---------15-------------------|
A|---------------------------------------------------------------------------|
E|---------------------------------------------------------------------------|


e|---------------------------------------------------------------------------|
B|---------------------------------12-13-12----12-15-------------------------|
G|-14-12----12-14------------12-14----------14-------12----12----------------|
D|-------15---------12-14-15----------------------------15-12----------------|
A|---------------------------------------------------------14----------------|
E|---------------------------------------------------------------------------|

e|---------------------------------------------------------------------------|
B|------------Play riff twice, let last chord ring out.----------------------|
G|-0--------0---------0--------0-------0--------0--------0------0------------|
D|-12-------12--------12-------10------10-------10-------10/12--12-----------|
A|-14-------14--------14-------12------12-------12-------12/14--14-----------|
E|----0-0-0-----0-0-0----0-0-0---0-0-0----0-0-0----0-0-0--------(0)----------|
. . . . . . . . . . . . . . . . . . . . . . . . . . . . . 

e|---------------------------------------------------------------------------|
B|---------------------------------------------------------------------------|
G|---------------------------------------------------------------------------|
D|-------------------------------------------------------12-------12-14------|
A|-------------------12-------12-14----12-14-15-12-14-15----14-15-------12---|
E|-12-14-15-12-14-15----14-15-------15---------------------------------------|


e|---------------------------------------------------------------------------|
B|------------------------------------------------------------12-------12-14-|
G|------------------------12-------12-14----12-14-15-12-14-15----14-15-------|
D|------12-14-15-12-14-15----14-15-------15----------------------------------|
A|14-15----------------------------------------------------------------------|
E|---------------------------------------------------------------------------|


e|----------------------12-------12-14----12-14-15-12-14-15-17-15-17-19-20---|
B|----12-14-15-12-14-15----14-15-------15------------------------------------|
G|-15------------------------------------------------------------------------|
D|---------------------------------------------------------------------------|
A|---------------------------------------------------------------------------|
E|---------------------------------------------------------------------------|


e|17-19-21-22B~--22-20-18----------20-18-16----------18-16-14----------16-14-|
B|---------------------------------------------------------------------------|
G|---------------------------------------------------------------------------|
D|---------------------------------------------------------------------------|
A|---------------------------------------------------------------------------|
E|---------------------------------------------------------------------------|


e|-12-15-13-12---------------------------------------------------------------|
B|-------------15-13-12------------------------------------------------------|
G|----------------------15-13-12---------------------------------------------|
D|-------------------------------15-13-12------------------------------------|
A|----------------------------------------15-13-12---------------------------|
E|-------------------------------------------------15-13-12BBBBBp0-----------|
     
                 Third Theme  
e|---------------------------------------------------------------------------|
B|------------------------------------------------play this four times-------|
G|---------------------------------------------------------------------------|
D|-------------------------------------------------------7/6/5---------------|
A|-4-------4-----4---4-----4/5/4-4-------4-----4---4-----5/4/3---------------|
E|-2-2-2-2-2-2-2-2-2-2-2-2-2/3/2-2-2-2-2-2-2-2-2-2-2-2-2---------------------|

       THEN
e|---------------------------------------------------------------------------|
B|-------------Play this four times------------------------------------------|
G|---------------------------------------------------------------------------|
D|-5-----9-----7---3-5-7-----------------------------------------------------|
A|-3-3-3-7-7-7-5-5-1-3-5-----------------------------------------------------|
E|---------------------------------------------------------------------------|

        THEN
e|---------------------------------------------------------------------------|
B|---------------------------------------------------------------------------|
G|---------------------------------------------------------------------------|
D|---7~-----7~--7~------7~--7~-----7~--5~------------------------------------|
A|------5~--5~------5~--5~-----5~--5~--3~------------------------------------|
E|-----------------------------------------0---------------------------------|


e|----------------------------------------------12h13h15-17-19-21-22BBBB~~~~-|
B|-------------------------------------12h14h15------------------------------|
G|----------------------------12h13h15---------------------------------------|
D|-------------------12h14h15------------------------------------------------|
A|----------12h13h15---------------------------------------------------------|
E|-12h14h15------------------------------------------------------------------|


____________________________________________________________________________

                               War Within

e|---------------------------------------------------------------------------|
B|---------------------------------------------------------------------------|
G|---------------------------------------------------------------------------|
D|-5ph-3ph-2ph---------------------------2-----------------------------------|
A|-------------5ph-3ph-2ph---------------2-2/12/2/12~-12/18/0----------------|
E|-------------------------5ph-3ph-2ph-0-0-----------------------------------|


e|---------------------------------------------------------------------------|
B|---------------------------------------------------------------------------|
G|-------6-7-9-7-6-------6-7-9-7-6-------6-7-9-7-6-------6-7-9-7-6-----------|
D|-----7-----------7---7-----------7---7-----------7---7-----------9-7-6-----|
A|-7-9---------------9---------------9---------------9-------------------9-7-|
E|---------------------------------------------------------------------------|
   . . . . . . . . . . . . . . . . . . . . . . . . . . . . . . . . . . . . .

e|---------------------------------------------------------------------------|
B|---------------------------------------------------------------------------|
G|----9-7-6-----------9-7-6------------------------------------------7-6-7~--|
D|---------9-7-6------------9-7-6----------------------7-6-7~-9-8-9~---------|
A|-6------------9-7-6-------------9-7-6-7-6-7~--9-8-9~-----------------------|
E|---------------------------------------------------------------------------|
   .  . . . . . . . . . . . . . . . . .

e|------------------7-6-7-9-8-9-11-10-11-13-12-13-15-14-15-17-16-17-19B------|
B|--------7-6-7~-9~----------------------------------------------------------|
G|-9-8-9~--------------------------------------------------------------------|
D|---------------------------------------------------------------------------|
A|---------------------------------------------------------------------------|
E|---------------------------------------------------------------------------|


e|----------------15h17h19p17p15----------------15h17h19p17p15---------------|
B|-19p17p15h17h19----------------19p17p15h17h19----------------19p17p15h17h19|
G|---------------------------------------------------------------------------|
D|---------------------------------------------------------------------------|
A|---------------------------------------------------------------------------|
E|---------------------------------------------------------------------------|


e|15h17h19p17p15----------------------13h15h17p15p13-------------------------|
B|---------------19~~~-17p15p13h15h17----------------17p15p13h15h17----------|
G|---------------------------------------------------------------------------|
D|---------------------------------------------------------------------------|
A|---------------------------------------------------------------------------|
E|---------------------------------------------------------------------------|



e|-13h15h17p15p13----------------13h15h17p15p13------------------------------|
B|----------------17p15p13h15h17----------------17~----19p17p15h17h19--------|
G|---------------------------------------------------------------------------|
D|---------------------------------------------------------------------------|
A|---------------------------------------------------------------------------|
E|---------------------------------------------------------------------------|


e|-15h17h19p17p15---------------15h17h19p17p15---------------13h15h17p15p13--|
B|----------------19p17p15h17h19---------------17p15p13h15h17----------------|
G|---------------------------------------------------------------------------|
D|---------------------------------------------------------------------------|
A|---------------------------------------------------------------------------|
E|---------------------------------------------------------------------------|


e|----------------13h15h17p15p13----------------15h17h19p17p15---------------|
B|-17p15p13h15h17----------------19p17p15h17h19----------------19p17p15h17h19|
G|---------------------------------------------------------------------------|
D|---------------------------------------------------------------------------|
A|---------------------------------------------------------------------------|
E|---------------------------------------------------------------------------|


e|-15h17h19p17p15------------------------------------------------------------|
B|----------------19~-17~-15~-13~-11~-9~-7~--6-------------------------------|
G|---------------------------------------------9-7-6-------------------------|
D|---------------------------------------------------9-7-6-------------------|
A|---------------------------------------------------------9-7-6-------------|
E|---------------------------------------------------------------------------|


e|---------------------------------------------------------------------------|
B|---------------------------------------------------------------------------|
G|-------6-7-9-7-6-------6-7-9-7-6-------6-7-9-7-6-------6-7-9-7-6-----------|
D|-----7-----------7---7-----------7---7-----------7---7-----------9-7-6-----|
A|-7-9---------------9---------------9---------------9-------------------9-7-|
E|---------------------------------------------------------------------------|
   . . . . . . . . . . . . . . . . . . . . . . . . . . . . . . . . . . . . .

e|---------------------------------------------------------------------------|
B|---------------------------------------------------------------------------|
G|----9-7-6-----------9-7-6------------------------------------------7-6-7~--|
D|---------9-7-6------------9-7-6----------------------7-6-7~-9-8-9~---------|
A|-6------------9-7-6-------------9-7-6-7-6-7~--9-8-9~-----------------------|
E|---------------------------------------------------------------------------|
   .  . . . . . . . . . . . . . . . . .

e|------------------7-6-7-9-8-9-11-10-11-13-12-13-15-14-15-17-16-17-19B------|
B|--------7-6-7~-9~----------------------------------------------------------|
G|-9-8-9~--------------------------------------------------------------------|
D|---------------------------------------------------------------------------|
A|---------------------------------------------------------------------------|
E|---------------------------------------------------------------------------|



e|-19-18-16------------------------------------------------------------------|
B|----------19-18-16------------------------------------------------15-19p15-|
G|-------------------19-17-16-------------------------------------16---------|
D|----------------------------19-17-16--------------------------17-----------|
A|-------------------------------------19-18-16---------------17-------------|
E|----------------------------------------------19-17-16-15h18---------------|


e|--------------------15h19p15------15-18p15------15-19p15-------18p13-------|
B|------------------16--------16--16--------16--16--------16--16------14--14-|
G|-16-------------17------------17------------17------------15----------15---|
D|---17---------17-----------------------------------------------------------|
A|-----17--15h18-------------------------------------------------------------|
E|-------18------------------------------------------------------------------|



e|-13-17p13------13-18p13------13-17p11-------16p11------17p11------16p12trp-|
B|---------14--14--------14--14---------12--12-----12--12-----12--12---------|
G|-----------15------------15-------------13---------13---------13-----------|
D|---------------------------------------------------------------------------|
A|---------------------------------------------------------------------------|
E|---------------------------------------------------------------------------|


e|-14trp-16tpr-14trp-16trp-18trp-16trp-18trp-20trp-18trp-20trp-22trpb~~~-----|
B|---------------------------------------------------------------------------|
G|---------------------------------------------------------------------------|
D|---------------------------------------------------------------------------|
A|---------------------------------------------------------------------------|
E|---------------------------------------------------------------------------|


e|---------------------------------------------------------------------------|
B|---------------------------------------------------------------------------|
G|-------6-7-9-7-6-------6-7-9-7-6-------6-7-9-7-6-------6-7-9-7-6-----------|
D|-----7-----------7---7-----------7---7-----------7---7-----------9-7-6-----|
A|-7-9---------------9---------------9---------------9-------------------9-7-|
E|---------------------------------------------------------------------------|
   . . . . . . . . . . . . . . . . . . . . . . . . . . . . . . . . . . . . .

e|---------------------------------------------------------------------------|
B|---------------------------------------------------------------------------|
G|----9-7-6-----------9-7-6------------------------------------------7-6-7~--|
D|---------9-7-6------------9-7-6----------------------7-6-7~-9-8-9~---------|
A|-6------------9-7-6-------------9-7-6-7-6-7~--9-8-9~-----------------------|
E|---------------------------------------------------------------------------|
   .  . . . . . . . . . . . . . . . . .

e|------------------7-6-7-9-8-9-11-10-11-13-12-13-15-14-15-17-16-17-19B------|
B|--------7-6-7~-9~----------------------------------------------------------|
G|-9-8-9~--------------------------------------------------------------------|
D|---------------------------------------------------------------------------|
A|---------------------------------------------------------------------------|
E|---------------------------------------------------------------------------|


e|----------------15h17h19p17p15----------------15h17h19p17p15---------------|
B|-19p17p15h17h19----------------19p17p15h17h19----------------19p17p15h17h19|
G|---------------------------------------------------------------------------|
D|---------------------------------------------------------------------------|
A|---------------------------------------------------------------------------|
E|---------------------------------------------------------------------------|


e|15h17h19p17p15----------------------13h15h17p15p13-------------------------|
B|---------------19~~~-17p15p13h15h17----------------17p15p13h15h17----------|
G|---------------------------------------------------------------------------|
D|---------------------------------------------------------------------------|
A|---------------------------------------------------------------------------|
E|---------------------------------------------------------------------------|



e|-13h15h17p15p13----------------13h15h17p15p13------------------------------|
B|----------------17p15p13h15h17----------------17~----19p17p15h17h19--------|
G|---------------------------------------------------------------------------|
D|---------------------------------------------------------------------------|
A|---------------------------------------------------------------------------|
E|---------------------------------------------------------------------------|


e|-15h17h19p17p15---------------15h17h19p17p15---------------13h15h17p15p13--|
B|----------------19p17p15h17h19---------------17p15p13h15h17----------------|
G|---------------------------------------------------------------------------|
D|---------------------------------------------------------------------------|
A|---------------------------------------------------------------------------|
E|---------------------------------------------------------------------------|


e|----------------13h15h17p15p13----------------15h17h19p17p15---------------|
B|-17p15p13h15h17----------------19p17p15h17h19----------------19p17p15h17h19|
G|---------------------------------------------------------------------------|
D|---------------------------------------------------------------------------|
A|---------------------------------------------------------------------------|
E|---------------------------------------------------------------------------|


e|-15h17h19p17p15------------------------------------------------------------|
B|----------------19~-17~-15~-13~-11~-9~-7~--6-------------------------------|
G|---------------------------------------------9-7-6-------------------------|
D|---------------------------------------------------9-7-6---------------2---|
A|---------------------------------------------------------9-7-6---------2---|
E|---------------------------------------------------------------9-7-6-0-0---|

comments
We did not receive enough feedback on this tab! Please rate:
1 2 3 4 5
I want to post or [tab]
guest
You may want to rate the tab now too:
select rating
Please do not post tabs as comments. Select "correction" instead!