Oops, an error
Loading. Please wait.

Jacob Popowski - No Limits Tab

122 views 1 this week
no commentswrite comment
1 2 3 4 5
please rate
add to favorites launch autoscroll
font size
0
reset
Autoscroll
+/-
esc
set tempo
stop
Contributor
WARNING: You are trying to view
                                    content from Ultimate-Guitar.com
                                    in an unauthorized application,
                                    which is prohibited.

                                    Please use an official Ultimate
                                    Guitar Tabs application for iPhone,
                                    iPad or Android to access legitimate
                                    chords, guitar, bass, and drum tabs
                                    from Ultimate-Guitar.com database.

                                    Type "ultimate guitar tabs" in Apple
                                    App Store's or Android Market's
                                    search to find the application.

                      NO LIMITS
Written by and tabbed by: Jacob Popowski
Tempo: as fast as you can play it,

Tab key
p=pulloff
t=tap
h=hammeron
/=slide
~=vibrato

This song is basically an extremly fast sweep picking thing, 
and sounds really cool when played.  
We might play it in my band, Forsaken.  
Its a really cool song and one of the better I've written.
Oh, and I'm only 14, and I thinks its pretty good 
and the best thing I ever wrote.







e|---2-3--5p3p2t7p5p3p2t7p5p3p2t7p5p3p2t7p5p3p2------------------------------|
B|--3------------------------------------------3-3/5t9p7p5-------------------|
G|-2--------------------------------------------2---------5------------8h11--|
D|---------------------------------------------------------6-------7h10------|
A|----------------------------------------------------------7---6h9----------|
E|-----------------------------------------------------------5h8-------------|


e|-------------------7-10p7---7-10p7---7-10p7---7-10/15p12------12-15p12-----|
B|-10p7-------------8------8-8------8-8------8-8----------13--13--------13---|
G|-----8---------7h9--------9--------9--------9-------------14------------14-|
D|------7-----7h9------------------------------------------------------------|
A|-------9p7h9---------------------------------------------------------------|
E|---------------------------------------------------------------------------|


e|--12-15/17p14------14-17p14------14-17p14------14-17p14/12-----------------|
B|13-----------15--15--------15--15--------15--15-----------13---------------|
G|---------------16------------16------------16---------------14-------------|
D|--------------------------------------------------------------14--------14-|
A|----------------------------------------------------------------15-12h15---|
E|---------------------------------------------------------------------------|


e|-----12-17p12--------------------12-15p12--------------------12-17-15-12---|
B|---13--------13----------------13--------13----------------13-----------15-|
G|-14------------14------------14------------14------------14----------------|
D|-----------------14--------14----------------14--------14------------------|
A|-------------------15-12h15--------------------15-12h15--------------------|
E|---------------------------------------------------------------------------|


e|--15-12-10-----------------------------------------------------------------|
B|12--------12-10-14-12-10---------------------------------------------------|
G|------------------------12-10-14-12-10-------------------------------------|
D|--------------------------------------12-10-14-12-10-----------------------|
A|----------------------------------------------------12-10-14-12-10---------|
E|------------------------------------------------------------------12-10-14-|


e|----------------10-15p10------10-14p10------10-13p10------12p10------10-12-|
B|--------------11--------11--11--------11--11--------11--11-----11--11------|
G|------------12------------12------------12------------12---------12--------|
D|----------12---------------------------------------------------------------|
A|--------12-----------------------------------------------------------------|
E|12-10h14-------------------------------------------------------------------|


e|/17p14------14-18p14------14-19p14------14-18p14------14-17p14/12----------|
B|------15--15--------15--15--------15--15--------15--15-----------13--------|
G|--------16------------16------------16------------16---------------14------|
D|---------------------------------------------------------------------14----|
A|-----------------------------------------------------------------------15--|
E|---------------------------------------------------------------------------|


e|-----------------------17-19-21-22-22p17--------------------15-19p15-------|
B|------------12-17p15-19-----------------18----------------16--------16-----|
G|----------13------------------------------17------------16------------17---|
D|--------14----------------------------------19--------16----------------17-|
A|------14--------------------------------------17/15h17---------------------|
E|-12h15---------------------------------------------------------------------|


e|------------------12-17p12-------------------------------------------------|
B|----------------13--------13--------------------------17p15------15p13-----|
G|--------------14------------14-------------------15h18-----16---------14---|
D|------------14----------------14------------14h17------------15---------13-|
A|-18-15/12h15--------------------15-----13h16-------------------17----------|
E|----------------------------------12h15------------------------------------|


e|-------------t14p9--t14p9---t14p9--t14p9-t15p9-t13p9-14p9------14p9--------|
B|---------------------------------------------------------10--10----10--10--|
G|-----------------------------------------------------------11--------11----|
D|-------2-------------------------------------------------------------------|
A|-15----2-------------------------------------------------------------------|
E|---12--0-------------------------------------------------------------------|


e|--14P9------15p9------13p9------14p9------14p9--------14p9------14p9-------|
B|------10--10----10--10----10--10----10--10----10---10-----10--10----10--10-|
G|--------11--------11--------11--------11--------11----------11--------11---|
D|---------------------------------------------------------------------------|
A|---------------------------------------------------------------------------|
E|---------------------------------------------------------------------------|


e|-15p9------13p9------14p9---------14p9---------14p9------------------------|
B|-----10--10----10--10----9------------9------------9-----------------------|
G|-------11--------11-------10-----------10-----------10---------------------|
D|----------------------------11-----------11-----------11------2------------|
A|------------------------------11-----------11-----------11----2------------|
E|--------------------------------12-----------11-----------10~/0------------|



e|---2-3--5p3p2t7p5p3p2t7p5p3p2t7p5p3p2t7p5p3p2------------------------------|
B|--3------------------------------------------3-3/5t9p7p5-------------------|
G|-2--------------------------------------------2---------5------------8h11--|
D|---------------------------------------------------------6-------7h10------|
A|----------------------------------------------------------7---6h9----------|
E|-----------------------------------------------------------5h8-------------|


e|-------------------7-10p7---7-10p7---7-10p7---7-10/15p12------12-15p12-----|
B|-10p7-------------8------8-8------8-8------8-8----------13--13--------13---|
G|-----8---------7h9--------9--------9--------9-------------14------------14-|
D|------7-----7h9------------------------------------------------------------|
A|-------9p7h9---------------------------------------------------------------|
E|---------------------------------------------------------------------------|


e|--12-15/17p14------14-17p14------14-17p14------14-17p14/12-----------------|
B|13-----------15--15--------15--15--------15--15-----------13---------------|
G|---------------16------------16------------16---------------14-------------|
D|--------------------------------------------------------------14--------14-|
A|----------------------------------------------------------------15-12h15---|
E|---------------------------------------------------------------------------|


e|-----12-17p12--------------------12-15p12--------------------12-17-15-12---|
B|---13--------13----------------13--------13----------------13-----------15-|
G|-14------------14------------14------------14------------14----------------|
D|-----------------14--------14----------------14--------14------------------|
A|-------------------15-12h15--------------------15-12h15--------------------|
E|---------------------------------------------------------------------------|


e|--15-12-10-----------------------------------------------------------------|
B|12--------12-10-14-12-10---------------------------------------------------|
G|------------------------12-10-14-12-10-------------------------------------|
D|--------------------------------------12-10-14-12-10-----------------------|
A|----------------------------------------------------12-10-14-12-10---------|
E|------------------------------------------------------------------12-10-14-|


e|----------------10-15p10------10-14p10------10-13p10------12p10------10-12-|
B|--------------11--------11--11--------11--11--------11--11-----11--11------|
G|------------12------------12------------12------------12---------12--------|
D|----------12---------------------------------------------------------------|
A|--------12-----------------------------------------------------------------|
E|12-10h14-------------------------------------------------------------------|


e|/17p14------14-18p14------14-19p14------14-18p14------14-17p14/12----------|
B|------15--15--------15--15--------15--15--------15--15-----------13--------|
G|--------16------------16------------16------------16---------------14------|
D|---------------------------------------------------------------------14----|
A|-----------------------------------------------------------------------15--|
E|---------------------------------------------------------------------------|


e|-----------------------17-19-21-22-22p17--------------------15-19p15-------|
B|------------12-17p15-19-----------------18----------------16--------16-----|
G|----------13------------------------------17------------16------------17---|
D|--------14----------------------------------19--------16----------------17-|
A|------14--------------------------------------17/15h17---------------------|
E|-12h15---------------------------------------------------------------------|


e|------------------12-17p12-------------------------------------------------|
B|----------------13--------13--------------------------17p15------15p13-----|
G|--------------14------------14-------------------15h18-----16---------14---|
D|------------14----------------14------------14h17------------15---------13-|
A|-18-15/12h15--------------------15-----13h16-------------------17----------|
E|----------------------------------12h15------------------------------------|


e|-------------t14p9--t14p9---t14p9--t14p9-t15p9-t13p9-14p9------14p9--------|
B|---------------------------------------------------------10--10----10--10--|
G|-----------------------------------------------------------11--------11----|
D|-------2-------------------------------------------------------------------|
A|-15----2-------------------------------------------------------------------|
E|---12--0-------------------------------------------------------------------|


e|--14P9------15p9------13p9------14p9------14p9--------14p9------14p9-------|
B|------10--10----10--10----10--10----10--10----10---10-----10--10----10--10-|
G|--------11--------11--------11--------11--------11----------11--------11---|
D|---------------------------------------------------------------------------|
A|---------------------------------------------------------------------------|
E|---------------------------------------------------------------------------|


e|-15p9------13p9------14p9---------14p9---------14p9------------------------|
B|-----10--10----10--10----9------------9------------9-----------------------|
G|-------11--------11-------10-----------10-----------10---------------------|
D|----------------------------11-----------11-----------11------2------------|
A|------------------------------11-----------11-----------11----2------------|
E|--------------------------------12-----------11-----------10~/0------------|
comments
We did not receive enough feedback on this tab! Please rate:
print report bad tab
1 2 3 4 5
I want to post or [tab]
guest
You may want to rate the tab now too:
select rating
Please do not post tabs as comments. Select "correction" instead!