Oops, an error
Loading. Please wait.

Jens And Rikard - Disposal Of The Body Tab

494 views 1 this week
no commentswrite comment
1 2 3 4 5
please rate
add to favorites launch autoscroll
font size
0
reset
Autoscroll
+/-
esc
set tempo
stop
Contributor
Difficulty
advanced
WARNING: You are trying to view
                                    content from Ultimate-Guitar.com
                                    in an unauthorized application,
                                    which is prohibited.

                                    Please use an official Ultimate
                                    Guitar Tabs application for iPhone,
                                    iPad or Android to access legitimate
                                    chords, guitar, bass, and drum tabs
                                    from Ultimate-Guitar.com database.

                                    Type "ultimate guitar tabs" in Apple
                                    App Store's or Android Market's
                                    search to find the application.
                    Disposal of the fucking body (in E major)                               


                                     Original by Cannibal Corpse 
                                     Rearranged by Jens And Rikard

Tablature Legend
----------------
PM - palm mute
TP - tremolo picking
AH - artificial harmonic
h - hammer on
p - pull off
b - bend
/ -  slide into from below or out of upwards
\ -  slide into from above or out of downwards
~ - vibrato
T - tapping
|-n-|  -n- tuplets (note duration)



Intro:
    
E||------------------------|-------------------------||
B||------------------------|-------------------------||
G||------------------------|------------------------*||
D||------------------------|------------------------*||
A||------------------------|-------------2-----------||
E||--4---2---0--5---4---2--|--4---2---0------4---2---||







Pre Verse and Verse:


------------------------------------------------------|
------------------------------------------------------|
------------------------------------------------------|
------------------------------------------------------|
--11-7-7-7-7-7-11-7-7-7-7-7-11-7-7-7-7-7-11-7-7-7-7-7-|
------------------------------------------------------|


-------------------------------------------------------------|
-------------------------------------------------------------|
-------------------------------------------------------------|
-------------------------------------------------------------|
--11-7-7-7-7-7-11-7-7-7-7-7-11-7-7-7-7-7-9h-12p-9-11h-14p-11-|
-------------------------------------------------------------|


------------------------------------------------------|
------------------------------------------------------|
------------------------------------------------------|
------------------------------------------------------|
--11-7-7-7-7-7-11-7-7-7-7-7-11-7-7-7-7-7-11-7-7-7-7-7-|
------------------------------------------------------|


-------------------------------------------------------------|
-------------------------------------------------------------|
-------------------------------------------------------------|
----------------------------6h-9p-6-7h-11p-7-6h-9p-6-4h-7p-4-|
--11-7-7-7-7-7-11-7-7-7-7-7----------------------------------|
-------------------------------------------------------------|


------------------------------------------------------|
------------------------------------------------------|
------------------------------------------------------|
------------------------------------------------------|
--11-7-7-7-7-7-11-7-7-7-7-7-11-7-7-7-7-7-11-7-7-7-7-7-|
------------------------------------------------------|

 
---------------------------------------------------------------------|
---------------------------------------------------------------------|
---------------------------------------------------------------------|
--6h-9p-6-7h-11p-7-6h-9p-6-7h-11p-7-6h-9p-6-7h-11p-7-6h-9p-6-4h-7p-4-|
---------------------------------------------------------------------|
---------------------------------------------------------------------|

 
------------------------------------------------------|
------------------------------------------------------|
------------------------------------------------------|
------------------------------------------------------|
--11-7-7-7-7-7-11-7-7-7-7-7-11-7-7-7-7-7-11-7-7-7-7-7-|
------------------------------------------------------|


  |------5------| |------5------| |-----5-----| |-----5-----| 
--------------------------------------------------------------|
--------------------------------------------------------------|
--------------------------------------------------------------|
--9h-13p-9h-13p-9-7h-11p-7h-11p-7-6h-9p-6h-9p-6-4h-7p-4h-7p-4-|    <- Guitar
--------------------------------------------6------6----------|    <- Bass
--7------7------7------7------9------9------------------------|







Chorus:

  1     2     3     4     1     2     3     4
--------------------------------------------------|
--------------------------------------------------|
--------------------------------------------------|
--------------------------------------------------|
--7-7-7-7-----------------------------------------|
----------7-7-7-7-7-3-4-4-0-0-0-0-0-0-4-4-4-7-7-7-|


--------------------------------------------------|
--------------------------------------------------|
--------------------------------------------------|
--7-7-7-7-7-7-4-4-4-------4-4-4-4-4-4-------------|
--9-9-9-9-9-9-6-6-6-6-6-6-6-6-6-6-6-6-6-6-6-6-6-6-|    <- Guitar 1
--------------------7-7-7-------------7-7-7-7-7-7-|    <- Guitar 2

 
--------------------------------------------------|
--------------------------------------------------|
--------------------------------------------------|
--------------------------------------------------|
--7-7-7-7-----------------------------------------|
----------7-7-7-7-7-3-4-4-0-0-0-0-0-0-4-4-4-7-7-7-|

 
--------------------------------------------------|
--------------------------------------------------|
--------------------------------------------------|
--------------2-2-2-7-7-7-------------4-4-4-9-9-9-|    <- Guitar 1
--4-4-4-4-4-4-4-4-4-7-7-7-6-6-6-6-6-6-6-6-6-9-9-9-|    <- Guitar 2
--5-5-5-5-5-5-------------7-7-7-7-7-7-------------|


--------------------------------------------------|
--------------------------------------------------|
--------------------------------------------------|
--------------------------------------------------|
--7-7-7-7-----------------------------------------|
----------7-7-7-7-7-3-4-4-0-0-0-0-0-0-4-4-4-7-7-7-|

 
--------------------------------------------------|
--------------------------------------------------|
--------------------------------------------------|
--7-7-7-7-7-7-4-4-4-------4-4-4-4-4-4-------------|
--9-9-9-9-9-9-6-6-6-6-6-6-6-6-6-6-6-6-6-6-6-6-6-6-|    <- Guitar 1
--------------------7-7-7-------------7-7-7-7-7-7-|    <- Guitar 2

 
--------------------------------------------------|
--------------------------------------------------|
--------------------------------------------------|
--------------------------------------------------|
--7-7-7-7-----------------------------------------|
----------7-7-7-7-7-3-4-4-0-0-0-0-0-0-4-4-4-7-7-7-|


--------------------------------------------------|
--------------------------------------------------|
--------------------------------------------------|
--------------------2-2-2-------------4-4-4-7-7-7-|    <- Guitar 1
--1-1-1-1-1-1-4-4-4-4-4-4-6-6-6-6-6-6-6-6-6-9-9-9-|    <- Guitar 2
--2-2-2-2-2-2-6-6-6-------7-7-7-7-7-7-------------|







Vers 2: (same as verse 1 but with added harmonies)


------------------------------------------------------|
------------------------------------------------------|
------------------------------------------------------|
------------------------------------------------------|
--11-7-7-7-7-7-11-7-7-7-7-7-11-7-7-7-7-7-11-7-7-7-7-7-|
------------------------------------------------------|


-------------------------------------------------------------|
-------------------------------------------------------------|
-------------------------------------------------------------|
-------------------------------------------------------------|
--11-7-7-7-7-7-11-7-7-7-7-7-11-7-7-7-7-7-9h-12p-9-11h-14p-11-|
-------------------------------------------------------------|


------------------------------------------------------|
------------------------------------------------------|
------------------------------------------------------|
---9-6-6-6-6-6--9-6-6-6-6-6--9-6-6-6-6-6--9-6-6-6-6-6-|    <- Guitar 1
--11-7-7-7-7-7-11-7-7-7-7-7-11-7-7-7-7-7-11-7-7-7-7-7-|    <- Guitar 2
------------------------------------------------------|


-------------------------------------------------------------|
-------------------------------------------------------------|
-------------------------------------------------------------|
---9-6-6-6-6-6--9-6-6-6-6-6-6h-9p-6-7h-11p-7-6h-9p-6-4h-7p-4-|
--11-7-7-7-7-7-11-7-7-7-7-7----------------------------------|
-------------------------------------------------------------|


------------------------------------------------------|
------------------------------------------------------|
------------------------------------------------------|
---9-6-6-6-6-6--9-6-6-6-6-6--9-6-6-6-6-6--9-6-6-6-6-6-|    <- Guitar 1
--11-7-7-7-7-7-11-7-7-7-7-7-11-7-7-7-7-7-11-7-7-7-7-7-|    <- Guitar 2
------------------------------------------------------|


---------------------------------------------------------------------|
---------------------------------------------------------------------|
---------------------------------------------------------------------|
--6h-9p-6-7h-11p-7-6h-9p-6-7h-11p-7-6h-9p-6-7h-11p-7-6h-9p-6-4h-7p-4-|
---------------------------------------------------------------------|
---------------------------------------------------------------------|


------------------------------------------------------|
------------------------------------------------------|
------------------------------------------------------|
--14-9-9-9-9-9-14-9-9-9-9-9-14-9-9-9-9-9-14-9-9-9-9-9-|    <- Guitar 1
--11-7-7-7-7-7-11-7-7-7-7-7-11-7-7-7-7-7-11-7-7-7-7-7-|    <- Guitar 2
------------------------------------------------------|


  |------5------| |------5------| |-----5-----| |-----5-----| 
--------------------------------------------------------------|
--------------------------------------------------------------|
--------------------------------------------------------------|
--9h-13p-9h-13p-9-7h-11p-7h-11p-7-6h-9p-6h-9p-6-4h-7p-4h-7p-4-|    <- Guitar
--------------------------------------------6------6----------|    <- Bass
--7------7------7------7------9------9------------------------|




Pre Bridge:

                                                                               
------------------------|------------------------|---------------------------|
------------------------|------------------------|---------------------------|
------------------------|------------------------|---------------------------|
------------------------|------------------------|---------------------------|
------------------------|------------------------|---------------------------|
--4---2---0--5---4---2--|--7---5---4--9---7---5--|--11---9---7--12---11---9--|

                          
------------------------------|
------------------------------|
------------------------------|
------------------------------|
------------------------------|
--14---12---11--16---14---12--|




Bridge:


  PM  PMPMPM  PM  PMPMPM  PM  PMPMPM  PM  PMPMPM  
--------------------------------------------------|
--------------------------------------------------|
--------------------------------------------------|
--------------------------------------------------|
--------------------------------------------------|
--6---2-2-2---6---2-2-2---6---2-2-2---6---2-2-2---|


  PM  PMPMPM  PM  PMPMPM  PM  PMPMPM         
------------------------------------------------------|
------------------------------------------------------|
------------------------------------------------------|
------------------------------------------------------|
--------------------------------------1h-4p-1-4h-7p-4-|
--6---2-2-2---6---2-2-2---6---2-2-2-------------------|


  PM  PMPMPM  PM  PMPMPM  PM  PMPMPM  PM  PMPMPM  
--------------------------------------------------|
--------------------------------------------------|
--------------------------------------------------|
--------------------------------------------------|
--------------------------------------------------|
--6---2-2-2---6---2-2-2---6---2-2-2---6---2-2-2---|


  PM  PMPMPM  PM  PMPMPM 
----------------------------------------------------------|
----------------------------------------------------------|
----------------------------------------------------------|
----------------------------------------------------------|
--------------------------4h-7p-4-7h-9p-7-4h-7p-4-1h-4p-1-|
--6---2-2-2---6---2-2-2-----------------------------------|


  PM  PMPMPM  PM  PMPMPM  PM  PMPMPM  PM  PMPMPM   
--------------------------------------------------|
--------------------------------------------------|
--------------------------------------------------|
--------------------------------------------------|
--------------------------------------------------|
--6---2-2-2---6---2-2-2---6---2-2-2---6---2-2-2---|


------------------------------------------------------------------|
------------------------------------------------------------------|
------------------------------------------------------------------|
------------------------------------------------------------------|
--4h-7p-4-7h-9p-7-4h-7p-4-7h-9p-7-4h-7p-4-7h-9p-7-4h-7p-4-1h-4p-1-|
------------------------------------------------------------------|


  PM  PMPMPM  PM  PMPMPM  PM  PMPMPM  PM  PMPMPM  
--------------------------------------------------|
--------------------------------------------------|
--------------------------------------------------|
--------------------------------------------------|
--------------------------------------------------|
--6---2-2-2---6---2-2-2---6---2-2-2---6---2-2-2---|


  |------5------| |------5------| |-----5-----| |-----5-----| 
--------------------------------------------------------------|
--------------------------------------------------------------|
--------------------------------------------------------------|
--9h-13p-9h-13p-9-7h-11p-7h-11p-7-6h-9p-6h-9p-6-4h-7p-4h-7p-4-|    <- Guitar
--------------------------------------------6------6----------|    <- Bass
--7------7------7------7------9------9------------------------|




Solo (over verse riff)


                  TP       TP TP TP TP TP TP  TP  TP     TP  TP  TP  TP                  
------------------------|----------------------------|------------------------------|
-----------------/0/----|--5--4--5--9--8--9--12--11--|--12--14--12--16--16b~--------|
------------------------|----------------------------|------------------------------|
------------------------|----------------------------|------------------------------|
------------------------|----------------------------|------------------------------|
------------------------|----------------------------|------------------------------|


   |---6---|  |6|  |---6--|  |6|  |---6--|  |6|  |--6--|  |6|   
--11h-12p-11p-0----9h-12p-9p-0----7h-12p-7p-0----4h-7p-4p-0----|
----------------0--------------0--------------0-------------0--|
---------------------------------------------------------------|
---------------------------------------------------------------|
---------------------------------------------------------------|
---------------------------------------------------------------|


  |--6--|  |6|  |--6--|  |6|                  
--4h-5p-4p-0----2h-4p-2p-0----0--------|
-------------0-------------0--0--------|
---------------------------------------|
---------------------------------------|
---------------------------------------|
---------------------------------------|


  T       T       T       T       T       T        T       T        
--7p-3h-4-9p-3h-4-7p-3h-4-9p-3h-4-7p-3h-4-9p-3h-4-12p-3h-4-9p-3h-4-|
-------------------------------------------------------------------|
-------------------------------------------------------------------|
-------------------------------------------------------------------|
-------------------------------------------------------------------|
-------------------------------------------------------------------|


  T       T       T       T                               
--7p-3h-4-9p-3h-4-7p-3h-4-9p-3h-4s-15b~--------|
-----------------------------------------------|
-----------------------------------------------|
-----------------------------------------------|
-----------------------------------------------|
-----------------------------------------------|


   |--6--| |6|   |--6--| |6|   |--6--| |6|   |--6--| |6|   
--16-19-16-0----16-17-16-0----14-16-14-0----12-14-12-0----|
-------------0-------------0-------------0-------------0--|
----------------------------------------------------------|
----------------------------------------------------------|
----------------------------------------------------------|
----------------------------------------------------------|


   |-------5-------|   |-------5-------|  |------5------|  |------5------|   
----------------------------------------------------------------------------|
--12h-16p-12h-16p-12p-10h-14p-10h-14p-10p-9h-12p-9h-12p-9p-7h-10p-7h-10p-7h-|
----------------------------------------------------------------------------|
----------------------------------------------------------------------------|
----------------------------------------------------------------------------|
----------------------------------------------------------------------------|
comments
We did not receive enough feedback on this tab! Please rate:
1 2 3 4 5
I want to post or [tab]
guest
You may want to rate the tab now too:
select rating
Please do not post tabs as comments. Select "correction" instead!