Oops, an error
Loading. Please wait.

Jerome Randall - Heavy Metal Tab

19 views 1 this week
no commentswrite comment
1 2 3 4 5
please rate
Autoscroll
+/-
esc
set tempo
stop
Contributor
Difficulty
intermediate
WARNING: You are trying to view
                                    content from Ultimate-Guitar.com
                                    in an unauthorized application,
                                    which is prohibited.

                                    Please use an official Ultimate
                                    Guitar Tabs application for iPhone,
                                    iPad or Android to access legitimate
                                    chords, guitar, bass, and drum tabs
                                    from Ultimate-Guitar.com database.

                                    Type "ultimate guitar tabs" in Apple
                                    App Store's or Android Market's
                                    search to find the application.
E|------------------------------------------------------------------------|
B|------------------------------------------------------------------------|
G|---------------9-----8------------------9-----8-------------------------|
D|--9--9--10--7-----7-----7--9--9--10--7-----7----------------------------|
A|--7--7---------------------7--7-----------------------------------------|
E|------------------------------------------------------------------------|

E|------------------------------------------------------------------------|
B|------------------------------------------------------------------------|
G|---------------9-----8------------------9-----8-------------------------|
D|--9--9--10--7-----7-----7--9--9--10--7-----7----------------------------|
A|--7--7---------------------7--7-----------------------------------------|
E|------------------------------------------------------------------------|

E|------------------------------------------------------------------------|
B|------------------------------------------------------------------------|
G|------------------------------------------------------------------------|
D|---------------9-----8------------------9-----8-------------------------|
A|--9--9--10--7-----7-----7--9--9--10--7-----7----------------------------|
E|--7--7---------------------7--7-----------------------------------------|

E|------------------------------------------------------------------------|
B|------------------------------------------------------------------------|
G|----------------------------------------------8-------------------------|
D|---------------9-----8------------------9-------------------------------|
A|--9--9--10--7-----7-----7--9--9--10--7-----7----------------------------|
E|--7--7---------------------7--7-----------------------------------------|

E|------------------------------------------------------------------------|
B|------------------------------------------------------------------------|
G|---------------------------8--------------------------------------------|
D|--------9--------9--9--10-----10--9--10-9-------------------------------|
A|--------7--------7------------------------------------------------------|
E|--0--0-----0--0---------------------------------------------------------|

E|------------------------------------------------------------------------|
B|------------------------------------------------------------------------|
G|---------------------------8--------------------------------------------|
D|--------7--------7--9--10-----10--9-10--7-------------------------------|
A|--------5--------5------------------------------------------------------|
E|--0--0-----0--0---------------------------------------------------------|

E|------------------------------------------------------------------------|
B|------------------------------------------------------------------------|
G|--------------------------8---------------------------------------------|
D|--------5--------5--9--10----10--9--10--12------------------------------|
A|--------3--------3------------------------------------------------------|
E|--0--0-----0--0---------------------------------------------------------|

E|------------------------------------------------------------------------|
B|------------------------------------------------------------------------|
G|------------------------------------------------------------------------|
D|--------9--------9----9--9--7--7--5--5--4-------------------------------|
A|--------7--------7----7--7--5--5--3--3--2-------------------------------|
E|--0--0-----0--0---------------------------------------------------------|

E|------------------------------------------------------------------------|
B|------------------------------------------------------------------------|
G|---------------------------8--------------------------------------------|
D|--------9--------9--9--10-----10--9--10-9-------------------------------|
A|--------7--------7------------------------------------------------------|
E|--0--0-----0--0---------------------------------------------------------|

E|------------------------------------------------------------------------|
B|------------------------------------------------------------------------|
G|---------------------------8--------------------------------------------|
D|--------7--------7--9--10-----10--9-10--7-------------------------------|
A|--------5--------5------------------------------------------------------|
E|--0--0-----0--0---------------------------------------------------------|

E|------------------------------------------------------------------------|
B|------------------------------------------------------------------------|
G|--------------------------8---------------------------------------------|
D|--------5--------5--9--10----10--9--10--12------------------------------|
A|--------3--------3------------------------------------------------------|
E|--0--0-----0--0---------------------------------------------------------|

E|------------------------------------------------------------------------|
B|------------------------------------------------------------------------|
G|------------------------------------------------------------------------|
D|--------9--------9----9--9--7--7--5--5--4-------------------------------|
A|--------7--------7----7--7--5--5--3--3--2-------------------------------|
E|--0--0-----0--0---------------------------------------------------------|

E|------------------------------------------------------------------------|
B|------------------------------------------------------------------------|
G|------------------------------------------------------------------------|
D|--------9-----------9-----------9-----------9---------------------------|
A|--------7-----------7-----------7-----------7---------------------------|
E|--0--0--------0--0--------0--0--------0--0------------------------------|

E|------------------------------------------------------------------------|
B|------------------------------------------------------------------------|
G|------------------------------------------------------------------------|
D|--------7--------7--------7--------7------------------------------------|
A|--------5--------5--------5--------5------------------------------------|
E|--0--0-----0--0-----0--0-----0--0---------------------------------------|

E|------------------------------------------------------------------------|
B|------------------------------------------------------------------------|
G|------------------------------------------------------------------------|
D|--------5--------5--------5/7--------7--------7/9--------9--------------|
A|--------3--------3--------3/5--------5--------5/7--------7--------------|
E|--0--0-----0--0-----0--0-------0--0-----0--0-------0--0-----------------|

E|------------------------------------------------------------------------|
B|------------------------------------------------------------------------|
G|------------------------------------------------------------------------|
D|--9--9--7--7--5--5--4--------9--------7--------5--------4--------2------|
A|--7--7--5--5--3--3--2--------7--------5--------3--------2--------2------|
E|-----------------------0--0-----0--0-----0--0-----0--0-----0--0--0------|

E|------------------------------------------------------------------------|
B|------------------------------------------------------------------------|
G|------------------------------------------------------------------------|
D|--------9--------7--------5--------4------------------------------------|
A|--------7--------5--------3--------2--------3---------------------------|
E|--0--0-----0--0-----0--0-----0--0-----0--0--1---------------------------|

E|-------------------------------------------------------------------------|
B|-------------------------------------------------------------------------|
G|-------------------------------------------------------------------------|
D|--------9--------7--------5--------4--------7--------5--------4--------2-|
A|--------7--------5--------3--------2--------5--------3--------2--------2-|
E|--0--0-----0--0-----0--0-----0--0-----0--0-----0--0-----0--0-----0--0--0-|

E|------------------------------------------------------------------------|
B|------------------------------------------------------------------------|
G|------------------------------------------------------------------------|
D|--------------2-----------------5--------4------------------------------|
A|--------------2--------5--------3--------2--2--2--2/3/2/0---------------|
E|--17/0--0--0--0--0--0--3--0--0-----0--0---------------------------------|

E|------------------------------------------------------------------------|
B|------------------------------------------------------------------------|
G|------------------------------------------------------------------------|
D|--------2------------------5--------4-----------------------------------|
A|--------2--------5---------3--------2--3--------------------------------|
E|--0--0--0--0--0--3---0--0-----0--0-----1--------------------------------|

E|---------------------------------------------------------------------------|
B|---------------------------------------------------------------------------|
G|---------------------------------------------------------------------------|
D|--------2-----------------5--------4--2------------------------------------|
A|--------2--------5--------3--------2--2------------------------------------|
E|--0--0--0--0--0--3--0--0-----0--0-----0------------------------------------|
comments
We did not receive enough feedback on this tab! Please rate:
print report bad tab
1 2 3 4 5
I want to post or [tab]
guest
You may want to rate the tab now too:
select rating
Please do not post tabs as comments. Select "correction" instead!