Oops, an error
Loading. Please wait.

Jon Cage Blaze - Initium Novum Tab

9 views 1 this week
no commentswrite comment
1 2 3 4 5
please rate
add to favorites launch autoscroll
font size
0
reset
Autoscroll
+/-
esc
set tempo
stop
Contributor
Difficulty
Tuning
intermediate
C G C F A D
WARNING: You are trying to view
                                    content from Ultimate-Guitar.com
                                    in an unauthorized application,
                                    which is prohibited.

                                    Please use an official Ultimate
                                    Guitar Tabs application for iPhone,
                                    iPad or Android to access legitimate
                                    chords, guitar, bass, and drum tabs
                                    from Ultimate-Guitar.com database.

                                    Type "ultimate guitar tabs" in Apple
                                    App Store's or Android Market's
                                    search to find the application.
Legend:

~ = Let Ring               / = Slide Up

pm = Palm Mute             \ = Slide Down

x = Dead Note              h = Hammer-On

p = Pull-Off

Intro

Rhythm: Dist
                                                  (The 10's were shortened to fit the tab) 
D|---------------------------------------------------------------------| play 2x
A|---------------------------------------------------------------------|
F|---------------------------------------------------------------------|
C|-0-0--0--0-333333-0-0--0--0-777777-0-0--0--0-333333-0-0--0--0-888888-|
G|-0-0--0--0-555555-0-0--0--0-888888-0-0--0--0-555555-0-0--0--0-101010-|
C|-0-0--0--0--------0-0--0--0--------0-0--0--0--------0-0--0--0--------|

Rhythm: Dist

D|---------------------------------------------------------------------|
A|---------------------------------------------------------------------|
F|---------------------------------------------------------------------|
C|-0~------------------------------------------------------------------|
G|-0~------------------------------------------------------------------|
C|-0~------------------------------------------------------------------|

Verse 1

Lead: Clean

D|---------------------------------------------------------------------|
A|---------------------------------------------------------------------|
F|---10--10--10--10--10--10--10--10--14--14--14--14--14--14--14--14----|
C|-12--12--12--12--12--12--12--12--15--15--15--15--15--15--15--15------|
G|---------------------------------------------------------------------|
C|---------------------------------------------------------------------|

D|---------------------------------------------------------------------|
A|---------------------------------------------------------------------|
F|---10--10--10--10--10--10--10--10---9---9---9---9---9---9---9---9----|
C|-12--12--12--12--12--12--12--12--10--10--10--10--10--10--10--10------|
G|---------------------------------------------------------------------|
C|---------------------------------------------------------------------|

play verse 2x

Pre-Chorus

Lead: Dist

D|---------------------------------------------------------------------|
A|---------------------------------------------------------------------|
F|---10--10--10--10--10--10--10--10--14--14--14--14--14--14--14--14----|
C|-12--12--12--12--12--12--12--12--15--15--15--15--15--15--15--15------|
G|---------------------------------------------------------------------|
C|---------------------------------------------------------------------|
                                                               
Rhythm: Dist                                           
                                                          
D|---------------------------------------------------------------------|
A|---------------------------------------------------------------------|
F|---------------------------------------------------------------------|
C|-5~------------------------------8~----------------------------------|
G|-5~------------------------------8~----------------------------------|
C|-5~------------------------------8~----------------------------------|

Lead: Dist

D|---------------------------------------------------------------------|
A|---------------------------------------------------------------------|
F|---10--10--10--10--10--10--10--10---9---9---9---9---9---9---9---9----|
C|-12--12--12--12--12--12--12--12--10--10--10--10--10--10--10--10------|
G|---------------------------------------------------------------------|
C|---------------------------------------------------------------------|

Rhythm: Dist

D|---------------------------------------------------------------------|
A|---------------------------------------------------------------------|
F|---------------------------------------------------------------------|
C|-5~------------------------------3~----------------------------------|
G|-5~------------------------------3~----------------------------------|
C|-5~------------------------------3~----------------------------------|

Lead: Dist

D|---------------------------------------------------------------------|
A|---------------------------------------------------------------------|
F|---10--10--10--10--10--10--10--10--14--14--14--14--14--14--14--14----|
C|-12--12--12--12--12--12--12--12--15--15--15--15--15--15--15--15------|
G|---------------------------------------------------------------------|
C|---------------------------------------------------------------------|

Rhythm: Dist                                           
                                                          
D|---------------------------------------------------------------------|
A|---------------------------------------------------------------------|
F|---------------------------------------------------------------------|
C|-5-555-5-5-55----8-888-8-8-88----3-333-3-3-33----0-000-0-0-00--------|
G|-5-555-5-5-55----8-888-8-8-88----3-333-3-3-33----0-000-0-0-00--------|
C|-5-555-5-5-55----8-888-8-8-88----3-333-3-3-33----0-000-0-0-00--------| 
   pm...     .       ...     .       ...     .       ...     .

 Lead: Dist

D|---------------------------------------------------------------------|
A|---------------------------------------------------------------------|
F|---10--10--10--10--10--10--10--10---9---9---9---9---9---9---9---9----|
C|-12--12--12--12--12--12--12--12--10--10--10--10--10--10--10--10------|
G|---------------------------------------------------------------------|
C|---------------------------------------------------------------------|

Rhythm: Dist                                           
                                                          
D|---------------------------------------------------------------------|
A|---------------------------------------------------------------------|
F|---------------------------------------------------------------------|
C|-5-555-5-5-55----8-888-8-8-88----3-333-3-3-33----0-000-0-0-00--------|
G|-5-555-5-5-55----8-888-8-8-88----3-333-3-3-33----0-000-0-0-00--------|
C|-5-555-5-5-55----8-888-8-8-88----3-333-3-3-33----0-000-0-0-00--------| 
   pm...     .       ...     .       ...     .       ...     .

Chorus

Lead: Dist
 (strumming)
D|--------------------------------------------------|
A|--------------------------------------------------|
F|-101010101010101010/1515\141414141414141414\9999/-|
C|-xxxxxxxxxxxxxxxxxxxxxxxxxxxxxxxxxxxxxxxxxxxxxxxx-|
G|-888888888888888888/1313\121212121212121212\7777/-|
C|--------------------------------------------------|

Rhythm: Dist

D|--------------------------------------------------|
A|--------------------------------------------------|
F|-------------------------7-77777-77777-77777-7777-|
C|-5-55555-55555-55555-55557-77777-77777-77777-7777-|
G|-5-55555-55555-55555-55555-55555-55555-55555-5555-|
C|-5-55555-55555-55555-5555-------------------------|

Lead: Dist
 (strumming)
D|--------------------------------------------------|
A|--------------------------------------------------|
F|-101010101010101010/1515\141414141414141414141414-|
C|-xxxxxxxxxxxxxxxxxxxxxxxxxxxxxxxxxxxxxxxxxxxxxxxx-|
G|-888888888888888888/1313\121212121212121212121212-|
C|--------------------------------------------------|

Rhythm: Dist

D|--------------------------------------------------|
A|--------------------------------------------------|
F|-------------------------7-77777-77777-77777-7777-|
C|-8-88888-88888-88888-88887-77777-77777-77777-7777-|
G|-8-88888-88888-88888-88885-55555-55555-55555-5555-|
C|-8-88888-88888-88888-8888-------------------------|

Intro

Rhythm: Dist
                                                  
D|---------------------------------------------------------------------| play 2x
A|---------------------------------------------------------------------|
F|---------------------------------------------------------------------|
C|-0-0--0--0-333333-0-0--0--0-777777-0-0--0--0-333333-0-0--0--0-888888-|
G|-0-0--0--0-555555-0-0--0--0-888888-0-0--0--0-555555-0-0--0--0-101010-|
C|-0-0--0--0--------0-0--0--0--------0-0--0--0--------0-0--0--0--------|

Rhythm: Dist

D|---------------------------------------------------------------------|
A|---------------------------------------------------------------------|
F|---------------------------------------------------------------------|
C|-0~------------------------------------------------------------------|
G|-0~------------------------------------------------------------------|
C|-0~------------------------------------------------------------------|

Verse 2

Lead: Clean

D|---------------------------------------------------------------------|
A|---------------------------------------------------------------------|
F|---10--10--10--10--10--10--10--10--14--14--14--14--14--14--14--14----|
C|-12--12--12--12--12--12--12--12--15--15--15--15--15--15--15--15------|
G|---------------------------------------------------------------------|
C|---------------------------------------------------------------------|

D|---------------------------------------------------------------------|
A|---------------------------------------------------------------------|
F|---10--10--10--10--10--10--10--10---9---9---9---9---9---9---9---9----|
C|-12--12--12--12--12--12--12--12--10--10--10--10--10--10--10--10------|
G|---------------------------------------------------------------------|
C|---------------------------------------------------------------------|

play verse 2x

Pre-Chorus

Lead: Dist

D|---------------------------------------------------------------------|
A|---------------------------------------------------------------------|
F|---10--10--10--10--10--10--10--10--14--14--14--14--14--14--14--14----|
C|-12--12--12--12--12--12--12--12--15--15--15--15--15--15--15--15------|
G|---------------------------------------------------------------------|
C|---------------------------------------------------------------------|
                                                               
Rhythm: Dist                                           
                                                          
D|---------------------------------------------------------------------|
A|---------------------------------------------------------------------|
F|---------------------------------------------------------------------|
C|-5~------------------------------8~----------------------------------|
G|-5~------------------------------8~----------------------------------|
C|-5~------------------------------8~----------------------------------|

Lead: Dist

D|---------------------------------------------------------------------|
A|---------------------------------------------------------------------|
F|---10--10--10--10--10--10--10--10---9---9---9---9---9---9---9---9----|
C|-12--12--12--12--12--12--12--12--10--10--10--10--10--10--10--10------|
G|---------------------------------------------------------------------|
C|---------------------------------------------------------------------|

Rhythm: Dist

D|---------------------------------------------------------------------|
A|---------------------------------------------------------------------|
F|---------------------------------------------------------------------|
C|-5~------------------------------3~----------------------------------|
G|-5~------------------------------3~----------------------------------|
C|-5~------------------------------3~----------------------------------|

Lead: Dist

D|---------------------------------------------------------------------|
A|---------------------------------------------------------------------|
F|---10--10--10--10--10--10--10--10--14--14--14--14--14--14--14--14----|
C|-12--12--12--12--12--12--12--12--15--15--15--15--15--15--15--15------|
G|---------------------------------------------------------------------|
C|---------------------------------------------------------------------|

Rhythm: Dist                                           
                                                          
D|---------------------------------------------------------------------|
A|---------------------------------------------------------------------|
F|---------------------------------------------------------------------|
C|-5-555-5-5-55----8-888-8-8-88----3-333-3-3-33----0-000-0-0-00--------|
G|-5-555-5-5-55----8-888-8-8-88----3-333-3-3-33----0-000-0-0-00--------|
C|-5-555-5-5-55----8-888-8-8-88----3-333-3-3-33----0-000-0-0-00--------| 
   pm...     .       ...     .       ...     .       ...     .

 Lead: Dist

D|---------------------------------------------------------------------|
A|---------------------------------------------------------------------|
F|---10--10--10--10--10--10--10--10---9---9---9---9---9---9---9---9----|
C|-12--12--12--12--12--12--12--12--10--10--10--10--10--10--10--10------|
G|---------------------------------------------------------------------|
C|---------------------------------------------------------------------|

Rhythm: Dist                                           
                                                          
D|---------------------------------------------------------------------|
A|---------------------------------------------------------------------|
F|---------------------------------------------------------------------|
C|-5-555-5-5-55----8-888-8-8-88----3-333-3-3-33----0-000-0-0-00--------|
G|-5-555-5-5-55----8-888-8-8-88----3-333-3-3-33----0-000-0-0-00--------|
C|-5-555-5-5-55----8-888-8-8-88----3-333-3-3-33----0-000-0-0-00--------| 
   pm...     .       ...     .       ...     .       ...     .

Chorus

Lead: Dist
 (strumming)
D|--------------------------------------------------|
A|--------------------------------------------------|
F|-101010101010101010/1515\141414141414141414\9999/-|
C|-xxxxxxxxxxxxxxxxxxxxxxxxxxxxxxxxxxxxxxxxxxxxxxxx-|
G|-888888888888888888/1313\121212121212121212\7777/-|
C|--------------------------------------------------|

Rhythm: Dist

D|--------------------------------------------------|
A|--------------------------------------------------|
F|-------------------------7-77777-77777-77777-7777-|
C|-5-55555-55555-55555-55557-77777-77777-77777-7777-|
G|-5-55555-55555-55555-55555-55555-55555-55555-5555-|
C|-5-55555-55555-55555-5555-------------------------|

Lead: Dist
 (strumming)
D|--------------------------------------------------|
A|--------------------------------------------------|
F|-101010101010101010/1515\141414141414141414\9999/-|
C|-xxxxxxxxxxxxxxxxxxxxxxxxxxxxxxxxxxxxxxxxxxxxxxxx-|
G|-888888888888888888/1313\121212121212121212\7777/-|
C|--------------------------------------------------|

Rhythm: Dist

D|--------------------------------------------------|
A|--------------------------------------------------|
F|-------------------------7-77777-77777-77777-7777-|
C|-8-88888-88888-88888-88887-77777-77777-77777-7777-|
G|-8-88888-88888-88888-88885-55555-55555-55555-5555-|
C|-8-88888-88888-88888-8888-------------------------|

Lead: Dist
 (strumming)
D|--------------------------------------------------|
A|--------------------------------------------------|
F|-101010101010101010/1515\141414141414141414\9999/-|
C|-xxxxxxxxxxxxxxxxxxxxxxxxxxxxxxxxxxxxxxxxxxxxxxxx-|
G|-888888888888888888/1313\121212121212121212\7777/-|
C|--------------------------------------------------|

Rhythm: Dist

D|--------------------------------------------------|
A|--------------------------------------------------|
F|-------------------------7-77777-77777-77777-7777-|
C|-5-55555-55555-55555-55557-77777-77777-77777-7777-|
G|-5-55555-55555-55555-55555-55555-55555-55555-5555-|
C|-5-55555-55555-55555-5555-------------------------|

Lead: Dist
 (strumming)
D|--------------------------------------------------------|
A|--------------------------------------------------------|
F|-101010101010101010/1515\141414141414141414\9999/171717-|
C|-xxxxxxxxxxxxxxxxxxxxxxxxxxxxxxxxxxxxxxxxxxxxxxxxxxxxxx-|
G|-888888888888888888/1313\121212121212121212\7777/151515-|
C|--------------------------------------------------------|

Rhythm: Dist

D|--------------------------------------------------------|
A|--------------------------------------------------------|
F|-------------------------7-77777-77777-77777-7777777777-|
C|-8-88888-88888-88888-88887-77777-77777-77777-7777777777-|
G|-8-88888-88888-88888-88885-55555-55555-55555-5555555555-|
C|-8-88888-88888-88888-8888-------------------------------|

Bridge

Rhythm: Dist

D|--------------------------------------------------------------|
A|--------------------------------------------------------------|
F|--------------------------------------------------------------|
C|-333333333333333777777777777777888888888888888-77777775555555-|
G|-555555555555555888888888888888101010101010101088888887777777-|
C|--------------------------------------------------------------|
 pm... ..... .. . ... ..... .. . ... ..... .. .  ... .. ... ..

Lead: Dist

D|--------------------------------------------------------------------------------------------|
A|--------------------------------------------------------------------------------------------|
F|--------------------------------------------------------------------------------------------|
C|-101010101010101010101010101010141414141414141414141414141414151515151515151515151515151515-|
G|-121212121212121212121212121212151515151515151515151515151515171717171717171717171717171717-|
C|--------------------------------------------------------------------------------------------|
 pm......  ..........  ....  ..  ......  ..........  ....  ..  ......  ..........  ....  ..  

Lead: Dist

D|------------------------------|
A|------------------------------|
F|------------------------------|
C|-1414141414141412121212121212-|
G|-1515151515151514141414141414-|
C|------------------------------|
 pm......  ....  ......  ....  

Rhythm: Dist

D|--------------------------------------------------------------|
A|--------------------------------------------------------------|
F|--------------------------------------------------------------|
C|-333333333333333777777777777777888888888888888-77777775555555-|
G|-555555555555555888888888888888101010101010101088888887777777-|
C|--------------------------------------------------------------|
 pm... ..... .. . ... ..... .. . ... ..... .. .  ... .. ... ..

Lead: Dist

D|---------------------------------------------------------------------|
A|---------------------------------------------------------------------|
F|---10--10--10--10--10--10--10--10--14--14--14--14--14--14--14--14----|
C|-12--12--12--12--12--12--12--12--15--15--15--15--15--15--15--15------|
G|---------------------------------------------------------------------|
C|---------------------------------------------------------------------|
                                                               
Rhythm: Dist                                           
                                                          
D|---------------------------------------------------------------------|
A|---------------------------------------------------------------------|
F|---------------------------------------------------------------------|
C|-5~------------------------------8~----------------------------------|
G|-5~------------------------------8~----------------------------------|
C|-5~------------------------------8~----------------------------------|

Lead: Dist

D|---------------------------------------------------------------------|
A|---------------------------------------------------------------------|
F|---10--10--10--10--10--10--10--10---9---9---9---9---9---9---9---9----|
C|-12--12--12--12--12--12--12--12--10--10--10--10--10--10--10--10------|
G|---------------------------------------------------------------------|
C|---------------------------------------------------------------------|

Rhythm: Dist

D|---------------------------------------------------------------------|
A|---------------------------------------------------------------------|
F|---------------------------------------------------------------------|
C|-5~------------------------------3~----------------------------------|
G|-5~------------------------------3~-----------------------x-x----x-x-|
C|-5~------------------------------3~-----------------------x-x----x-x-|

Chorus

Lead: Dist
 (strumming)
D|--------------------------------------------------|
A|--------------------------------------------------|
F|-101010101010101010/1515\141414141414141414\9999/-|
C|-xxxxxxxxxxxxxxxxxxxxxxxxxxxxxxxxxxxxxxxxxxxxxxxx-|
G|-888888888888888888/1313\121212121212121212\7777/-|
C|--------------------------------------------------|

Rhythm: Dist

D|--------------------------------------------------|
A|--------------------------------------------------|
F|-------------------------7-77777-77777-77777-7777-|
C|-5-55555-55555-55555-55557-77777-77777-77777-7777-|
G|-5-55555-55555-55555-55555-55555-55555-55555-5555-|
C|-5-55555-55555-55555-5555-------------------------|

Lead: Dist
 (strumming)
D|--------------------------------------------------|
A|--------------------------------------------------|
F|-101010101010101010/1515\141414141414141414\9999/-|
C|-xxxxxxxxxxxxxxxxxxxxxxxxxxxxxxxxxxxxxxxxxxxxxxxx-|
G|-888888888888888888/1313\121212121212121212\7777/-|
C|--------------------------------------------------|

Rhythm: Dist

D|--------------------------------------------------|
A|--------------------------------------------------|
F|-------------------------7-77777-77777-77777-7777-|
C|-8-88888-88888-88888-88887-77777-77777-77777-7777-|
G|-8-88888-88888-88888-88885-55555-55555-55555-5555-|
C|-8-88888-88888-88888-8888-------------------------|

Lead: Dist
 (strumming)
D|--------------------------------------------------|
A|--------------------------------------------------|
F|-101010101010101010/1515\141414141414141414\9999/-|
C|-xxxxxxxxxxxxxxxxxxxxxxxxxxxxxxxxxxxxxxxxxxxxxxxx-|
G|-888888888888888888/1313\121212121212121212\7777/-|
C|--------------------------------------------------|

Rhythm: Dist

D|--------------------------------------------------|
A|--------------------------------------------------|
F|-------------------------7-77777-77777-77777-7777-|
C|-5-55555-55555-55555-55557-77777-77777-77777-7777-|
G|-5-55555-55555-55555-55555-55555-55555-55555-5555-|
C|-5-55555-55555-55555-5555-------------------------|

Lead: Dist
 (strumming)
D|--------------------------------------------------|
A|--------------------------------------------------|
F|-101010101010101010/1515\141414141414141414\171717|
C|-xxxxxxxxxxxxxxxxxxxxxxxxxxxxxxxxxxxxxxxxxxxxxxxxx|
G|-888888888888888888/1313\121212121212121212\151515|
C|--------------------------------------------------|

Rhythm: Dist

D|--------------------------------------------------|
A|--------------------------------------------------|
F|-------------------------7-77777-77777-77777-7777-|
C|-8-88888-88888-88888-88887-77777-77777-77777-7777-|
G|-8-88888-88888-88888-88885-55555-55555-55555-5555-|
C|-8-88888-88888-88888-8888-------------------------|

Lead: Dist

D|---------------------------------------------------------------------|
A|---------------------------------------------------------------------|
F|-15h16p15-18-----15h16p15--------------------------------------------|
C|---------------------------16-----13~--------------------------------|
G|---------------------------------------------------------------------|
C|---------------------------------------------------------------------|

Rhythm: Dist

D|---------------------------------------------------------------------|
A|---------------------------------------------------------------------|
F|---------------------------------------------------------------------|
C|-5----------------3---------------0~---------------------------------|
G|-5----------------3---------------0~---------------------------------|
C|-5----------------3---------------0~---------------------------------|
comments
We did not receive enough feedback on this tab! Please rate:
1 2 3 4 5
I want to post or [tab]
guest
You may want to rate the tab now too:
select rating
Please do not post tabs as comments. Select "correction" instead!