Oops, an error
Loading. Please wait.

Lest We Forget - All The Empty Promises Tab

34 views 1 this week
2 commentsread comments
1 2 3 4 5
excellent!
x 1
Autoscroll
+/-
esc
set tempo
stop
Contributor
Difficulty
Tuning
advanced
C G C F A D
Hey! There's an official Ultimate Guitar app which is ideal
for learning songs when you're away from computer. Get the app
WARNING: You are trying to view
                                    content from Ultimate-Guitar.com
                                    in an unauthorized application,
                                    which is prohibited.

                                    Please use an official Ultimate
                                    Guitar Tabs application for iPhone,
                                    iPad or Android to access legitimate
                                    chords, guitar, bass, and drum tabs
                                    from Ultimate-Guitar.com database.

                                    Type "ultimate guitar tabs" in Apple
                                    App Store's or Android Market's
                                    search to find the application.
-----------------------------------------------------------------------------
                  ALL THE EMPTY PROMISES - Lest We Forget
-----------------------------------------------------------------------------
Tabbed by: harrylb14
E-mail: hlingardbright@hotmail.com

Music available at: http://www.facebook.com/Lestweforgetmetal/app_466370300075177

EW EP AVAILABLE ON iTUNES:
https://itunes.apple.com/gb/album/lest-we-forget-ep/id581502880?ign-mpt=uo%3D4

Tuning (All Guitars): Drop C (Low to High: C G C F A D)
Key: C Minor.

Guitar 1: 'Harry Lead' - Distortion
Guitar 2: 'Jamie Lead' - Distortion
Guitar 3: 'Harry Rhythm' - Distortion
Guitar 4: 'Jamie Rhythm' - Distortion
Guitar 5: 'Harry Clean' - Clean

4/4 throughout.
TEMPO: 200 BPM

INTRO.

  Guitar 3
   E E E  E E E  E E  E E E E E E E E  E E E  E E E  E E  E E E E E E E E
D|-------------------|----------------|------------------|----------------|
A|-------------------|----------------|------------------|----------------|
F|-------------------|----------------|------------------|----------------|
C|-0-0-12-0-0-10-0-0-|8-0-0-7-8-0-5-7-|0-0-12-0-0-10-0-0-|8-0-0-7-8-0-5-7-|
G|-------------------|----------------|------------------|----------------|
C|-------------------|----------------|------------------|----------------|
 |Guitar 4           |                |                  |                |
 | Q      r          |   r        Q   |Q     r           |                |
D|-------------------|----------------|------------------|----------------|
A|-------------------|----------------|------------------|----------------|
F|-7-----------------|------------7---|7-----------------|----------------|
C|-7-----------------|------------7---|7-----------------|----------------|
G|-5-----------------|------------5---|5-----------------|----------------|
C|-------------------|----------------|------------------|----------------|


     E E E  E E E  E E   E E E E  E E E  E   E E E  E E E  E E   E E E E  E E E  E
D||--------------------|--------------------|------------------|--------------------||
A||-o------------------|--------------------|------------------|------------------o-||
F||--------------------|--------------------|------------------|--------------------||
C||--0-0-12-0-0-10-0-0-|-8-0-0-7--8-0-5--7--|0-0-12-0-0-10-0-0-|-8-0-0-7--8-0-5--7--||
G||-o------------------|--------------------|------------------|------------------o-||
C||--------------------|--------------------|------------------|--------------------||
 ||                    |                    |                  |                    ||   X2
 ||  E E E  E E E  E E |E  E E E  E E E  E  |E E E  E E E  E E | E E E  E  E E E  E ||
D||--------------------|--------------------|------------------|--------------------||
A||-o------------------|--------------------|------------------|------------------o-||
F||--------------------|--------------------|------------------|--------------------||
C||--0-0-15-0-0-14-0-0-|12-0-0-10-12-0-8-10-|0-0-15-0-0-14-0-0-|12-0-0-10-12-0-8-10-||
G||-o------------------|--------------------|------------------|------------------o-||
C||--------------------|--------------------|------------------|--------------------||




   E E  E E E E  E E   E E E E  E E E  E   E E E  E E E  E E   E E E E  H
D|-------------------|--------------------|------------------|--------------|
A|-------------------|--------------------|------------------|--------------|
F|-------------------|--------------------|------------------|--------------|
C|-0-0-12-0-0-10-0-0-|-8-0-0-7--8-0-5--7--|0-0-12-0-0-10-0-0-|-8-0-0-0-7b8*-|
G|-------------------|--------------------|------------------|--------------|
C|-------------------|--------------------|------------------|--------------|
 |                   |                    |                  |              |
 | E E E  E E  E E E |E  E E E  E  E E  E |E E E  E E  E E E |E  E EE  H    |
D|-------------------|--------------------|------------------|--------------|
A|-------------------|--------------------|------------------|--------------|
F|-------------------|--------------------|------------------|--------------|
C|-0-0-15-0-0-14-0-0-|12-0-0-10-12-0-8-10-|0-0-15-0-0-14-0-0-|12-0-00-10b12*|
G|-------------------|--------------------|------------------|--------------|
C|-------------------|--------------------|------------------|--------------|




  E E E  E E E  E E  E E E E E E E E   E E E  E E E  E E  E E E E E E E E
D|------------------|----------------|-------------------|----------------|
A|------------------|----------------|-------------------|----------------|
F|------------------|----------------|-------------------|----------------|
C|------------------|----------------|-------------------|----------------|
G|------------------|----------------|-------------------|----------------|
C|0-0-12-0-0-10-0-0-|8-0-0-7-8-0-5-7-|-0-0-12-0-0-10-0-0-|8-0-0-7-8-0-5-7-|
 |                  |                |                   |                |
 |E E E  E E E  E E |E E E E E E E E | E E E  E E E  E E | E E E E E E E E|
D|------------------|----------------|-------------------|----------------|
A|------------------|----------------|-------------------|----------------|
F|------------------|----------------|-------------------|----------------|
C|------------------|----------------|-------------------|----------------|
G|------------------|----------------|-------------------|----------------|
C|0-0-12-0-0-10-0-0-|8-0-0-7-8-0-5-7-|-0-0-12-0-0-10-0-0-|8-0-0-7-8-0-5-7-|


  E E E  E E E  E E  E E E E E E E E   E E E  E E E  E E  SSSrSSSrSSSrSSSr
D|------------------|----------------|-------------------|----------------||
A|------------------|----------------|-------------------|----------------||
F|------------------|----------------|-------------------|----------------||
C|------------------|----------------|-------------------|----------------||
G|------------------|----------------|-------------------|----------------||
C|0-0-12-0-0-10-0-0-|8-0-0-7-8-0-5-7-|-0-0-12-0-0-10-0-0-|888-888-888-888-||
 |                  |                |                   |                ||
 |E E E  E E E  E E |E E E E E E E E | E E E  E E E  E E |SSSrSSSrSSSrSSSr||
D|------------------|----------------|-------------------|----------------||
A|------------------|----------------|-------------------|----------------||
F|------------------|----------------|-------------------|----------------||
C|------------------|----------------|-------------------|----------------||
G|------------------|----------------|-------------------|----------------||
C|0-0-12-0-0-10-0-0-|8-0-0-7-8-0-5-7-|-0-0-12-0-0-10-0-0-|888-888-888-888-||


VERSE.

  Guitar 5
      Q   Q  Q   Q    (W)                 Q   Q   Q   Q    (W)
D||------------------|------------------|-----------------|-----------------|
A||-o----------------|------------------|-----------------|-----------------|
F||------------------|------------------|-----------------|-----------------|
C||-------7------8~--|(8)---------------|-----5-------7~--|(7)--------------|
G||-o-5------5-------|------------------|-5-------5-------|-----------------|
C||------------------|------------------|-----------------|-----------------|
 ||Guitar 4          |                  |                 |                 |
 ||   W              |(W)               |  W              |(W)              |
D||------------------|------------------|-----------------|-----------------|
A||-o----------------|------------------|-----------------|-----------------|
F||------------------|------------------|-----------------|-----------------|
C||---0--------------|(0)---------------|-12+-------------|(12+)------------|
G||-o----------------|------------------|-----------------|-----------------|
C||------------------|------------------|-----------------|-----------------|


  Q    Q   Q   Q    (W)                 Q   Q   Q   Q    (Q)  Q   Q   Q
D|-----------------|------------------|-----------------|------------------||
A|-----------------|------------------|-----------------|----------------o-||
F|-----------------|------------------|-----------------|------------------||
C|-----7-------8~--|(8)---------------|-----3-------5~--|(5)--3---2---3----||
G|-5-------5-------|------------------|-3-------3-------|----------------o-||
C|-----------------|------------------|-----------------|------------------||
 |                 |                  |                 |                  ||
 | W               |(W)               | W               |(W)               ||
D|-----------------|------------------|-----------------|------------------||
A|-----------------|------------------|-----------------|----------------o-||
F|-----------------|------------------|-----------------|------------------||
C|-5+--------------|(5+)--------------|-7+--------------|(7+)--------------||
G|-----------------|------------------|-----------------|----------------o-||
C|-----------------|------------------|-----------------|------------------||

                                                                      x5


PRECHORUS.

  Guitar 1

D|-----------------|-----------------|-----------------|-----------------|
A|-----------------|-----------------|-----------------|-----------------|
F|-----------------|-----------------|-----------------|-----------------|
C|-----------------|-----------------|-----------------|-----------------|
G|-----------------|-----------------|-----------------|-----------------|
C|-----------------|-----------------|-----------------|-----------------|
 |Guitar 4         |                 |                 |                 |
 | Q   E E E E E E | E E E E E E E E | Q   E E E E E E | E E E E E E E E |
D|-----------------|-----------------|-----------------|-----------------|
A|-----------------|-----------------|-----------------|-----------------|
F|-7-----------7-7-|-7-7---7---7-7-7-|-7-----------7-7-|-7-7---7---7-7-7-|
C|-7---7-7-7-7-7-7-|-7-7-7-7-7-7-7-7-|-7---7-7-7-7-7-7-|-7-7-7-7-7-7-7-7-|
G|-5---5-5-5-5-5-5-|-5-5-5-5-5-5-5-5-|-5---5-5-5-5-5-5-|-5-5-5-5-5-5-5-5-|
C|-----------------|-----------------|-----------------|-----------------|
       . . . .           .   .             . . . .           .   .

D|-----------------|-----------------|-----------------|------------------|
A|-----------------|-----------------|-----------------|------------------|
F|-----------------|-----------------|-----------------|------------------|
C|-----------------|-----------------|-----------------|------------------|
G|-----------------|-----------------|-----------------|------------------|
C|-----------------|-----------------|-----------------|------------------|
 |                 |                 |                 |                  |
 | Q   E E E E E E | E E E E E E E E | Q   E E E E E E | E E E Q   Q.     |
D|-----------------|-----------------|-----------------|------------------|
A|-----------------|-----------------|-----------------|------------------|
F|-3-----------3-3-|-3-3---3---3-3-3-|-5-----------5-5-|-5-5---9---10-----|
C|-3---3-3-3-3-3-3-|-3-3-3-3-3-3-3-3-|-5---5-5-5-5-5-5-|-5-5-5-9---10-----|
G|-1---1-1-1-1-1-1-|-1-1-1-1-1-1-1-1-|-3---3-3-3-3-3-3-|-3-3-3-7---8------|
C|-----------------|-----------------|-----------------|------------------|
       . . . .           .   .             . . . .           .


N.B. Guitar 1 is played as tapping, lower notes hammered on with left hand

D||------------------|-----------------|-----------------|-----------------|
A||o-----------------|-----------------|-----------------|-----------------|
F||------------------|--------12-------|-----------------|--------12-------|
C||---7-15---7-14--7-|-12---7-----7-15-|--7-15---7-14--7-|-12---7-----7-15-|
G||o-5------5-----5--|----5-----5------|-5------5-----5--|----5-----5------|
C||------------------|-----------------|-----------------|-----------------|
 ||                  |                 |                 |                 |
 ||   Q  E E E E E E | E E E E E E E E | Q   E E E E E E | E E E E E E E E |
D||------------------|-----------------|-----------------|-----------------|
A||o-----------------|-----------------|-----------------|-----------------|
F||--7-----------7-7-|-7-7---7---7-7-7-|-7-----------7-7-|-7-7---7---7-7-7-|
C||--7---7-7-7-7-7-7-|-7-7-7-7-7-7-7-7-|-7---7-7-7-7-7-7-|-7-7-7-7-7-7-7-7-|
G||o-5---5-5-5-5-5-5-|-5-5-5-5-5-5-5-5-|-5---5-5-5-5-5-5-|-5-5-5-5-5-5-5-5-|
C||------------------|-----------------|-----------------|-----------------|
         . . . .           .   .             . . . .           .   .

D|-----------------|-----------------|-----------------|------------------||
A|-----------------|-----------------|-----------------|-----------------o||
F|-----------------|-15----14----12--|-----------------|-15----14----12---||
C|--3-15---3-14--3-|-----3-----3-----|--5-15---5-14--5-|-----5-----5------||
G|-1------1-----1--|---1-----1-------|-3------3-----3--|---3-----3-------o||
C|-----------------|-----------------|-----------------|------------------||
 |                 |                 |                 |                  ||
 | Q   E E E E E E | E E E E E E E E | Q   E E E E E E | E E E Q   Q.     ||
D|-----------------|-----------------|-----------------|------------------||
A|-----------------|-----------------|-----------------|-----------------o||
F|-3-----------3-3-|-3-3---3---3-3-3-|-5-----------5-5-|-5-5---9---10-----||
C|-3---3-3-3-3-3-3-|-3-3-3-3-3-3-3-3-|-5---5-5-5-5-5-5-|-5-5-5-9---10-----||
G|-1---1-1-1-1-1-1-|-1-1-1-1-1-1-1-1-|-3---3-3-3-3-3-3-|-3-3-3-7---8-----o||
C|-----------------|-----------------|-----------------|------------------||
       . . . .           .   .             . . . .           .
                                                                        X2

   Q.    E E E Q    (E) E E E E  E  E  E   Q.    E E E  Q    (W)
D|-----------------|---------------------|------------------|--------------||
A|-----------------|----------10-10-10-10|------------------|--------------||
F|-----------------|---------------------|------------------|--------------||
C|-7-----7-7-7-8---|(8)-8-8-8------------|-8-----8-8-8-10---|(10)----------||
G|-7-----7-7-7-8---|(8)-8-8-8------------|-8-----8-8-8-10---|(10)----------||
C|-7-----7-7-7-8---|(8)-8-8-8------------|-8-----8-8-8-10---|(10)----------||
 |                 |                     |                  |              ||
 | Q.    E E E Q   |(E) E E E E  E  E  E | Q.    E E E  Q   |(W)           ||
D|-----------------|---------------------|------------------|--------------||
A|-----------------|----------10-10-10-10|------------------|--------------||
F|-----------------|---------------------|------------------|--------------||
C|-7-----7-7-7-8---|(8)-8-8-8------------|-8-----8-8-8-10---|(10)----------||
G|-7-----7-7-7-8---|(8)-8-8-8------------|-8-----8-8-8-10---|(10)----------||
C|-7-----7-7-7-8---|(8)-8-8-8------------|-8-----8-8-8-10---|(10)----------||


CHORUS.

  Guitar 1
   E E E E E  E E E  E E  E E E E  E E  E E  E E E E  E E  E E  E E E E  E E
D|------------------|-------------10---|------------------|-------------10--|
A|----13------------|----13---------13-|----13------------|----13---------13|
F|10-9--10-9-10-9-10|9-10--10-9-10-----|10-9--10-9-10-9-10|9-10--10-9-10----|
C|------------------|------------------|------------------|-----------------|
G|------------------|------------------|------------------|-----------------|
C|------------------|------------------|------------------|-----------------|
 |Guitar 4          |                  |                  |                 |
 | Q   E E E E E E  |(E) E E E E E E E | Q    E E E E E E |(E) E E E E E E E|
D|------------------|------------------|------------------|-----------------|
A|------------------|------------------|------------------|-----------------|
F|-7---7-7-7-7-7-7--|(7)-7-7-7-x-7-7-7-|------------------|-----------------|
C|-7---7-7-7-7-7-7--|(7)-7-7-7-x-7-7-7-|-8----8-8-8-8-8-8-|(8)-8-8-8-x-8-8-8|
G|-5---5-5-5-5-5-5--|(5)-5-5-5-x-5-5-5-|-8----8-8-8-8-8-8-|(8)-8-8-8-x-8-8-8|
C|------------------|------------------|-8----8-8-8-8-8-8-|(8)-8-8-8-x-8-8-8|


   E E E E E  E E E  E E  E E    Q   EE E E E E  E E  E E  E E E E  E E
D|----10------------|-13-12-8-8b10br8--|------------------|-------------10--|
A|-----------13-----|----------------86|----13------------|----13---------13|
F|10-9--10-9---10-9-|10----------------|10-9--10-9-10-9-10|9-10--10-9-10----|
C|------------------|------------------|------------------|-----------------|
G|------------------|------------------|------------------|-----------------|
C|------------------|------------------|------------------|-----------------|
 |Guitar 4          |                  |                  |                 |
 | Q   E E E E E E  |(E) E E E E E E E | Q    E Q   E Q   | E Q   E E E E E |
D|------------------|------------------|------------------|-----------------|
A|------------------|------------------|------------------|-----------------|
F|-5---5-5-5-5-5-5--|(5)-5-5-5-x-5-5-5-|------------------|-------5-5-5-5-5-|
C|-5---5-5-5-5-5-5--|(5)-5-5-5-x-5-5-5-|-7----8-7---8-7---|-8-7---5-5-5-5-5-|
G|-3---3-3-3-3-3-3--|(3)-3-3-3-x-3-3-3-|-7----8-7---8-7---|-8-7---3-3-3-3-3-|
C|------------------|------------------|-7----8-7---8-7---|-8-7-------------|

                                                                       X2

Verse 2: Repeat Verse x4
PreChorus 2: Repeat PreChorus
Chorus 2: Repeat Chorus, however, on the repeat, instead of last bar, play:

  |-3-| |-3-| |--3--||-3--|  |--3--| |--3--| |-3-|  |--3---|
  S S S S S S S S  S S S  S  S  S  S S  S  S S S S  S   S  S
D|------------------------------------------------------15-17-||
A|------------8-10-11----------------15-17-18--15-17-18-------||
F|------7-9-10-------9-10-12-14-15-17--------17---------------||
C|7-8-10------------------------------------------------------||
G|------------------------------------------------------------||
C|------------------------------------------------------------||
 |                                                            ||
 | E    Q            E        E      E       E       E        ||
D|------------------------------------------------------------||
A|------------------------------------------------------------||
F|-------------------5--------5------5-------5-------5--------||
C|-8----7------------5--------5------5-------5-------5--------||
G|-8----7------------3--------3------3-------3-------3--------||
C|-8----7-----------------------------------------------------||


BREAKDOWN.

 Guitar 1
   H      Q   r(Q)
D|-17---(17)\----|
A|---------------|
F|---------------|
C|---------------|
G|---------------|
C|---------------|
 |Guitar 3       |
 | E E r(Q.)SSE E|E E r(Q)Q Q |E E r(Q.)SSE E|E E E E E E E E |
D|---------------|------------|--------------|----------------|
A|---------------|------------|--------------|----------------|
F|---------------|------------|--------------|----------------|
C|---------------|------------|--------------|----------------|
G|-0-0-----000-0-|0-0----0--0-|0-0-----000-0-|8-8-8-8-7-7-7-7-|
C|-0-0-----000-0-|0-0----0--0-|0-0-----000-0-|8-8-8-8-7-7-7-7-|
 | . .     ... . |. .    .  . |. .     ... . |                |
 |Guitar 4       |            |              |                |
 | E E r(Q.)SSE E|E E r(Q)Q Q |E E r(Q.)SSE E|E E E E E E E E |
D|---------------|------------|--------------|----------------|
A|---------------|------------|--------------|----------------|
F|---------------|------------|--------------|----------------|
C|---------------|------------|--------------|----------------|
G|-0-0-----000-0-|0-0----0--0-|0-0-----000-0-|8-8-8-8-7-7-7-7-|
C|-0-0-----000-0-|0-0----0--0-|0-0-----000-0-|8-8-8-8-7-7-7-7-|
   . .     ... .  . .    .  .  . .     ... .


   E E r(Q.)SSE E E E r(Q)Q Q  E E r(Q.)SSE E H       H
D|---------------|------------|--------------|----------------||
A|---------------|------------|--------------|----------------||
F|---------------|------------|--------------|----------------||
C|---------------|------------|--------------|----------------||
G|-0-0-----000-0-|0-0----0--0-|0-0-----000-0-|8-------7-------||
C|-0-0-----000-0-|0-0----0--0-|0-0-----000-0-|10------9-------||
 | . .     ... . |. .    .  . |. .     ... . |                ||
 |               |            |              |                ||
 | E E r(Q.)SSE E|E E r(Q)Q Q |E E r(Q.)SSE E|H       H       ||
D|---------------|------------|--------------|----------------||
A|---------------|------------|--------------|----------------||
F|---------------|------------|--------------|----------------||
C|---------------|------------|--------------|----------------||
G|-0-0-----000-0-|0-0----0--0-|0-0-----000-0-|8-------7-------||
C|-0-0-----000-0-|0-0----0--0-|0-0-----000-0-|10------9-------||
   . .     ... .  . .    .  .  . .     ... .

Bass Solo - Guitars silent x 8 Bars

BRIDGE 1.

  Guitar 3
     E E E  E E E  E E E  E E E  E E Q   E E E  E E E  E E  E  E E E  E E Q
D|-------------------|------------------|------------------|----------------|
A|o------------------|------------------|------------------|----------------|
F|-------------------|------------------|------------------|----------------|
C|-0-0-12-0-0-14-0-0-|15-0-0-14-0-0-12~-|0-0-17-0-0-19-0-0-|20-0-0-19-0-0-17|
G|o------------------|------------------|------------------|----------------|
C|-------------------|------------------|------------------|----------------|
 |Guitar 4           |                  |                  |                |
 | E E E  E E E  E E |E  E E E  E E  Q  |E E E  E E E  E E |E  E E E  E E Q |
D|-------------------|------------------|------------------|----------------|
A|o------------------|------------------|------------------|----------------|
F|-------------------|------------------|------------------|----------------|
C|-------------------|------------------|------------------|----------------|
G|o------------------|------------------|------------------|----------------|
C|-0-0-12-0-0-14-0-0-|15-0-0-14-0-0-12~-|0-0-17-0-0-19-0-0-|20-0-0-19-0-0-17|


   E E E E E E  E E  E  E E E  E E  Q  E E E  E E E  E E E  E E  E  E E E  E
D|------------------|-----------------|-----------------|-------------------|
A|------------------|-----------------|-----------------|-------------------|
F|------------------|-----------------|-----------------|-------------------|
C|0-0-12-0-0-14-0-0-|15-0-0-14-0-0-12~|0-0-17-0-0-19-0-0|20-0-19-0-17-0-15-0|
G|------------------|-----------------|-----------------|-------------------|
C|------------------|-----------------|-----------------|-------------------|
 |                  |                 |                 |                   |
 |E E E  E E E  E E |E  E E E  E E Q  |E E E  E E E  E E|E  E E E  E E  E  E|
D|------------------|-----------------|-----------------|-------------------|
A|------------------|-----------------|-----------------|-------------------|
F|------------------|-----------------|-----------------|-------------------|
C|------------------|-----------------|-----------------|-------------------|
G|------------------|-----------------|-----------------|-------------------|
C|0-0-12-0-0-14-0-0-|15-0-0-14-0-0-12~|0-0-17-0-0-19-0-0|20-0-19-0-17-0-15-0|

                                                                     X2


BRIDGE 2: ORCHESTRAL SECTION.


 Guitar 3
   W          (W)        W          W           W          H   H      W          H     Q 
  Q
D|-----------|---------|----------|-----------|----------|----------|-----------|--------------|
A|-----------|---------|----------|-----------|----------|----------|-----------|--------------|
F|-----------|---------|----------|-----------|----------|----------|-----------|--------------|
C|-0---------|(0)------|-7--------|-8---------|-5--------|-8---7----|-5---------|3-----3---2---|
G|-0---------|(0)------|-7--------|-8---------|-5--------|-8---7----|-5---------|3-----3---2---|
C|-0---------|(0)------|-7--------|-8---------|-5--------|-8---7----|-5---------|3-----3---2---|
 |Guitar 4   |         |          |           |          |          |           |        
      |
 | W         |(W)      | W        | W         | W        | H   H    | W         |H     Q 
  Q   |
D|-----------|---------|----------|-----------|----------|----------|-----------|--------------|
A|-----------|---------|----------|-----------|----------|----------|-----------|--------------|
F|-----------|---------|----------|-----------|----------|----------|-----------|--------------|
C|-0---------|(0)------|-7--------|-8---------|-5--------|-8---7----|-5---------|3-----3---2---|
G|-0---------|(0)------|-7--------|-8---------|-5--------|-8---7----|-5---------|3-----3---2---|
C|-0---------|(0)------|-7--------|-8---------|-5--------|-8---7----|-5---------|3-----3---2---|




(Play all Quarter notes in these 8 bars as staccato)
   Q Q Q Q    Q Q Q Q   Q Q Q Q    Q Q Q Q   Q Q Q Q    Q Q Q Q
D|----------|---------|----------|---------|----------|----------|
A|----------|---------|----------|---------|----------|----------|
F|----------|---------|----------|---------|----------|----------|
C|-0-0-0-0--|-0-0-0-0-|-7-7-7-7--|-8-8-8-8-|-5-5-5-5--|-8-8-8-7--|
G|-0-0-0-0--|-0-0-0-0-|-7-7-7-7--|-8-8-8-8-|-5-5-5-5--|-8-8-8-7--|
C|-0-0-0-0--|-0-0-0-0-|-7-7-7-7--|-8-8-8-8-|-5-5-5-5--|-8-8-8-7--|
 |          |         |          |         |          |          |
 | Q Q Q Q  | Q Q Q Q | Q Q Q Q  | Q Q Q Q | Q Q Q Q  | Q Q Q Q  |
D|----------|---------|----------|---------|----------|----------|
A|----------|---------|----------|---------|----------|----------|
F|----------|---------|----------|---------|----------|----------|
C|-0-0-0-0--|-0-0-0-0-|-7-7-7-7--|-8-8-8-8-|-5-5-5-5--|-8-8-8-7--|
G|-0-0-0-0--|-0-0-0-0-|-7-7-7-7--|-8-8-8-8-|-5-5-5-5--|-8-8-8-7--|
C|-0-0-0-0--|-0-0-0-0-|-7-7-7-7--|-8-8-8-8-|-5-5-5-5--|-8-8-8-7--|


   Q Q Q Q   Q  Q  Q  Q
D|----------|------------||
A|----------|------------||
F|----------|------------||
C|-5-5-5-5--|3--3--3--2--||
G|-5-5-5-5--|3--3--3--2--||
C|-5-5-5-5--|3--3--3--2--||
 |          |            ||
 | Q Q Q Q  |Q  Q  Q  Q  ||
D|----------|------------||
A|----------|------------||
F|----------|------------||
C|-5-5-5-5--|3--3--3--2--||
G|-5-5-5-5--|3--3--3--2--||
C|-5-5-5-5--|3--3--3--2--||
 |GUITAR 1  |            ||
 |r(H)Q  Q  |H      H    ||
D|----------|------------||
A|----------|------------||
F|----------|------12~---||
C|----12-14-|15~---------||
G|----------|------------||
C|----------|------------||



SOLO.

Guitar 4 plays Chorus rhythm line x2


 Guitar 1
  |--3--|  |--3--|   |--3--|  |--3--|  |--3--|  |--3--|   |--3--|  |--3--|
  E  E  E  E  E  E   E  E  E  E  E  E  E  E  E  E  E  E   E  E  E  E  E  E
D|------------------------------------|------------------------------------|
A|15h17h18-15h17h18-15h17h18-15h17h18-|17h18h20-17h18h20-17h18h20-17h18h20-|
F|------------------------------------|------------------------------------|
C|------------------------------------|------------------------------------|
G|------------------------------------|------------------------------------|
C|------------------------------------|------------------------------------|


  |--3--|  |--3--|   |--3--|  |--3--|  |--3--|  |--3--|   |--3--|  |--3--|
  E  E  E  E  E  E   E  E  E  E  E  E  E  E  E  E  E  E   E  E  E  E  E  E
D|------------------------------------|------------------------------------|
A|18h20h22-18h20h22-18h20h22-18h20h22-|18h20h22-17h18h20-15h17h18-13h15h17-|
F|------------------------------------|------------------------------------|
C|------------------------------------|------------------------------------|
G|------------------------------------|------------------------------------|
C|------------------------------------|------------------------------------|



  S  S   S S S S S  S S  S  S  S S S S  S   S  S   S S S S S  S S  S  S  S S S S  S
D|22-17-13------13-17-22-17-13------13-17-|-23-18-15------15-18-23-18-15------15-18-|
A|--------15--15--------------15--15------|---------16--16--------------16--16------|
F|----------14------------------14--------|-----------15------------------15--------|
C|----------------------------------------|-----------------------------------------|
G|----------------------------------------|-----------------------------------------|
C|----------------------------------------|-----------------------------------------|



  S  S   S S S S S  S S  S  S  S S S S  S   S  S   S S S S S  S S  S  S  S Q
D|20-15-12------12-15-20-15-12------12-15-|-22-17-13------13-17-22-17-13------------|
A|--------13--13--------------13--13------|---------15--15--------------15----------|
F|----------12------------------12--------|-----------14------------------14~-------|
C|----------------------------------------|-----------------------------------------|
G|----------------------------------------|-----------------------------------------|
C|----------------------------------------|-----------------------------------------|

   E  E   E E E   E E  E  (E)  E  E  E E  E  E  E   E  E  E  E  E  E E E   (E)  E  E E  E
 E E  E
D|-----------------------|------------------------|-----------------------|------------------------|
A|-----------------------|------------------------|---------13-15-13------|----------15-17-15------|
F|---------12-14-12------|----------14-15-14------|-12-14-15--------15-14-|(14)-15-17--------17-15-|
C|-12-14-15--------15-14-|(14)-15-17--------17-15-|-----------------------|------------------------|
G|-----------------------|------------------------|-----------------------|------------------------|
C|-----------------------|------------------------|-----------------------|------------------------|




 S  S   S S S S S  S S  S  S  S S S S  S   S  S   S S S S S  S S  S  S  S S S S  S
D|22-17-13------13-17-22-17-13------13-17-|-23-18-15------15-18-23-18-15------15-18-|
A|--------15--15--------------15--15------|---------16--16--------------16--16------|
F|----------14------------------14--------|-----------15------------------15--------|
C|----------------------------------------|-----------------------------------------|
G|----------------------------------------|-----------------------------------------|
C|----------------------------------------|-----------------------------------------|



  S  S   S S S S S  S S  S  S  S S S S  S   S  S   S S S S S  S S  S  S  S Q
D|20-15-12------12-15-20-15-12------12-15-|-22-17-13------13-17-22-17-13------------||
A|--------13--13--------------13--13------|---------15--15--------------15----------||
F|----------12------------------12--------|-----------14------------------14~-------||
C|----------------------------------------|-----------------------------------------||
G|----------------------------------------|-----------------------------------------||
C|----------------------------------------|-----------------------------------------||
 |Guitar 2                                |                                         ||
 |                                        | E    E    E    E    E    E    E     E   ||
D|----------------------------------------|-----------------------------------------||
A|----------------------------------------|-------------------------------8-----9---||
F|----------------------------------------|----------------7----9----10-------------||
C|----------------------------------------|-7----8---10-----------------------------||
G|----------------------------------------|-----------------------------------------||
C|----------------------------------------|-----------------------------------------||
 |Guitar 1                                |                                         ||
 |                                        | E    E    E    E    E    E    E     E   ||
D|----------------------------------------|-----------------------------------------||
A|----------------------------------------|-----------------------------------------||
F|----------------------------------------|-------------------------------7-----8---||
C|----------------------------------------|----------------5----7----8--------------||
G|----------------------------------------|-4----5----7-----------------------------||
C|----------------------------------------|-----------------------------------------||



DUAL.

Guitar 4 plays Chorus rhythm line x2



  Guitar 2                          |--3--|                                    |--3--|
   H         H         (H)          Q  Q  Q   H          H         (H)         Q  Q  Q
D|--------------------|---------------------|--------------------|---------------------|
A|-10--------18-------|(18)--------18-17-10-|-11--------15-------|-(15)-------15-13-11-|
F|--------------------|---------------------|--------------------|---------------------|
C|--------------------|---------------------|--------------------|---------------------|
G|--------------------|---------------------|--------------------|---------------------|
C|--------------------|---------------------|--------------------|---------------------|
 |Guitar 1            |             |--3--| |                    |             |--3--| |
 | H         H        |(H)          Q  Q  Q | H          H       | (H)         Q  Q  Q |
D|--------------------|---------------------|--------------------|---------------------|
A|--------------------|---------------------|--------------------|---------------------|
F|-10--------19-------|(19)--------19-17----|-14--------15-------|(15)--------15-14----|
C|--------------------|------------------19-|--------------------|------------------12-|
G|--------------------|---------------------|--------------------|---------------------|
C|--------------------|---------------------|--------------------|---------------------|


                              |----3----|
  Q.      S  S  H      (H)     Q   Q   Q     H         H          W
D|--------------------|--------------------|--------------------|-17------------|
A|--------------------|--------------------|--------------------|---------------|
F|-12-----12-14-15----|(15)----15--17--15--|-15--------14-------|---------------|
C|--------------------|--------------------|--------------------|---------------|
G|--------------------|--------------------|--------------------|---------------|
C|--------------------|--------------------|--------------------|---------------|
 |                    |        |----3----| |                    |               |
 | Q.      S  S  H    |(H)      Q   Q   Q  |  H         H       |  W            |
D|--------------------|--------------------|--------------------|---------------|
A|--------------------|--------------------|-----------14-------|-17------------|
F|-10-----10-9--12----|(12)----12--14--10--|--------------------|---------------|
C|--------------------|--------------------|-14-----------------|---------------|
G|--------------------|--------------------|--------------------|---------------|
C|--------------------|--------------------|--------------------|---------------|



                                   |--3--|
   H       H          (H)          Q  Q  Q    H         H             (H)         (E) S  S
  S  S  S S
D|-17------22-------|-(22)--------22b24br22-|-22--------------------|-----------------15-17-18-17-15---|
A|------------------|-----------------------|-----------20----------|-(20)-------(20)---------------18-|
F|------------------|-----------------------|-----------------------|----------------------------------|
C|------------------|-----------------------|-----------------------|----------------------------------|
G|------------------|-----------------------|-----------------------|----------------------------------|
C|------------------|-----------------------|-----------------------|----------------------------------|
 |                  |              |--3--|  |                       |                    
              |
 | H       H        | (H)          Q  Q  Q  | H         H           | (H)         (E) S  
S   S  S  S S |
D|---------17-------|-(17)--------17b19br17-|-18--------------------|----------------------------------|
A|-18---------------|-----------------------|-----------17----------|-(17)-------(17)-17-18-20-18-17---|
F|------------------|-----------------------|-----------------------|-------------------------------19-|
C|------------------|-----------------------|-----------------------|----------------------------------|
G|------------------|-----------------------|-----------------------|----------------------------------|
C|------------------|-----------------------|-----------------------|----------------------------------|




   Q.       S  S  E   E   E   E     Q   Q    Q  Q   H        H        W
D|--------------------------------|---------------|-----------------|-------------------||
A|-18-------17-18-17--15--11--10--|-10--11--10--8-|-----------------|-------------------||
F|--------------------------------|---------------|-10-------9------|-14~---------------||
C|--------------------------------|---------------|-----------------|-------------------||
G|--------------------------------|---------------|-----------------|-------------------||
C|--------------------------------|---------------|-----------------|-------------------||
 |                                |               |                 |                   ||
 | Q.       S  S  E   E   E   E   | Q   Q    Q  Q | H        H      | W                 ||
D|--------------------------------|---------------|-----------------|-------------------||
A|--------------------------------|---------------|-----------------|-------------------||
F|-19-------18-19-18----------10--|-12--10--9-----|-----------------|-------------------||
C|------------------------12------|------------14-|-12-------11-----|-14~---------------||
G|--------------------13----------|---------------|-----------------|-------------------||
C|--------------------------------|---------------|-----------------|-------------------||


Chorus 3: Repeat Chorus 2, after last bar finish on:


  Guitar 1
   H.            (Q)
D|-17~-----------(17)\----||
A|------------------------||
F|------------------------||
C|------------------------||
G|------------------------||
C|------------------------||
 |Guitar 4       -        ||
 |                        ||
D|------------------------||
A|------------------------||
F|------------------------||
C|-0----------------------||
G|-0----------------------||
C|-0----------------------||


Structure:
INTRO
VERSE
PRECHORUS
CHORUS
VERSE 2
PRECHORUS
CHORUS 2
BREAKDOWN
Bass Solo
BRIDGE 1
BRIDGE 2: Orchestral Section
SOLO
DUAL
CHORUS 3

************************************
W = Whole Note
H = Half Note
Q = Quarter Note
E = Eighth Note
S = Sixteenth Note
(E) = Tied Beat
r(Q) = Rest (Quarter note)
Q. = Dotted note
. = Palm Mute

| /   slide up
| \   slide down
| h   hammer-on
| p   pull-off
| ~   vibrato
| +   natural harmonic
| *   pinch harmonic
| x   Mute note
| b   Bend
| pb  Pre-bend
| br  Bend release
| pbr Pre-bend release
| brb Bend release bend

************************************
comments
We did not receive enough feedback on this tab! Please rate:
print report bad tab
1 2 3 4 5
2 comments total.
0 reply
WhiteSoundD wrote on April 23 2013, 05:04 pm

Do you have a GP for this?

0 reply
harrylb14 wrote on May 5 2013, 08:56 am

Yes i do, will upload it later today :)

I want to post or [tab]
guest
You may want to rate the tab now too:
select rating
Please do not post tabs as comments. Select "correction" instead!