Oops, an error
Loading. Please wait.

Linked Horizon - Jiyuu No Tsubasa Tab

11,365 views 138 this week
3 commentsread comments
1 2 3 4 5
accurate
x 6
Autoscroll
+/-
esc
set tempo
stop
Contributor
Difficulty
advanced
Hey! There's an official Ultimate Guitar app which is ideal
for learning songs when you're away from computer. Get the app
WARNING: You are trying to view
                                    content from Ultimate-Guitar.com
                                    in an unauthorized application,
                                    which is prohibited.

                                    Please use an official Ultimate
                                    Guitar Tabs application for iPhone,
                                    iPad or Android to access legitimate
                                    chords, guitar, bass, and drum tabs
                                    from Ultimate-Guitar.com database.

                                    Type "ultimate guitar tabs" in Apple
                                    App Store's or Android Market's
                                    search to find the application.
Tabbed by: 20minutesto9

Cover: http://www.yout.ube.com/watch?v=7HBDm2ob-RA  (get rid of extra period obviously)

Leave a comment if you have a question/correction

Tuning:EADGBe

Intro:

e|-------------------------------------|-------------------------------------|
B|-------------------------------------|-------------------------------------|
G|-5----4----2-------------------5--4--|--5----4----3----2-------------------|
D|-5----5----2----5----3----4----5--5--|--5----5----5----2----3----5---------|
A|-3----2----0----5----3----5----5--5--|--3----2----1----0----3----5---------|
E|----------------3----1----2----3--3--|----------------------1----3---------|


Guitar 1

e|12p0-12p0-12p0-17p0-19p0-17p0-12p0|17p0-19p0-17p0-12p0-17p0-19p0-17p0-12p0-|
B|----------------------------------|----------------------------------------|
G|----------------------------------|----------------------------------------|
D|----------------------------------|----------------------------------------|
A|----------------------------------|----------------------------------------|
E|----------------------------------|----------------------------------------|

Guitar 2
e|17p0-17p0-17p0-20p0-22p0-20p0-17p0|20p0-22p0-20p0-17p0-20p0-22p0-20p0-17p0-|
B|----------------------------------|----------------------------------------|
G|----------------------------------|----------------------------------------|
D|----------------------------------|----------------------------------------|
A|----------------------------------|----------------------------------------|
E|----------------------------------|----------------------------------------|

For both guitars, repeat that 4 times. On the 5th time, play up to where the first measure line is.

Verse

Guitar 1
e|------------------------------------------------------------------12-------|
B|-------------------------------------------------5/7--7/14-----------------|
G|-4b6--------------6br4-----------------------------------------------------|
D|------------------------------------4--------------------------------------|
A|---------------------------------------------------------------------------|
E|---------------------------------------------------------------------------|

Guitar 2 (Play the chord, tremolo pick the bass note)
e|---------------------------------------------------------------------------|
B|---------------------------------------------------------------------------|
G|---------------------------------------------------------------------------|
D|-4------------------5---------------4-------------2------------------------|
A|-4------------------5---------------4-------------2-------------4-2-0------|
E|-2-2...-------------3-3...----------2-2...--------0-0...--------------4-2-0|

Pre-Chorus (Play it Twice)
e|---------------------------------------------------------------------------|
B|---------------------------------------------------------------------------|
G|---------------------------------------------------------------------------|
D|-6---6---6---7------4------6-----------------------------------------------|
A|-4---4---4---5------2------4------6------6---7---9-------------------------|
E|----------------------------------4------4---5---7-------------------------|

Chorus
e|---------------------------------------------------------------------------|
B|---------------------------------------------------------------------------|
G|---------------------------------7-----------7-----------7-----------------|
D|-4-----------4-----------4-------7-----------7-----------7-----------------|
A|-4-----------4-----------4-------5-5-5-5-5-5-5-5-5-5-5-5-5-5-5-5-----------|
E|-2-2-2-2-2-2-2-2-2-2-2-2-2-2-2-2-------------------------------------------|

e|---------------------------------------------------------------------------|
B|---------------------------------------------------------------------------|
G|---------------------------------------------------------------------------|
D|-7-----------7-----------7-------2-----------2-----------2-----------------|
A|-7-----------7-----------7-------2-----------2-----------2-----------------|
E|-5-5-5-5-5-5-5-5-5-5-5-5-5-5-5-5-0-0-0-0-0-0-0-0-0-0-0-0-0-0-0-0-----------|

e|---------------------------------------------------------------------------|
B|---------------------------------------------------------------------------|
G|---------------------------------7-----------7-----------7-----------------|
D|-4-----------4-----------4-------7-----------7-----------7-----------------|
A|-4-----------4-----------4-------5-5-5-5-5-5-5-5-5-5-5-5-5-5-5-5-----------|
E|-2-2-2-2-2-2-2-2-2-2-2-2-2-2-2-2-------------------------------------------|

e|---------------------------------------------------------------------------|
B|---------------------------------------------------------------------------|
G|---------------------------------------------------------------------------|
D|-7-----------7------------------6--6--6----7----4----6---------------------|
A|-7-----------7------------------4--4--4----5----2----4---------------------|
E|-5-5-5-5-5-5-5-5-5-5-5-5--7--8---------------------------------------------|

e|---------------------------------------------------------------------------|
B|---------------------------------------------------------------------------|
G|---------------------------------7-----------7-----------7-----------------|
D|-4-----------4-----------4-------7-----------7-----------7-----------------|
A|-4-----------4-----------4-------5-5-5-5-5-5-5-5-5-5-5-5-5-5-5-5-----------|
E|-2-2-2-2-2-2-2-2-2-2-2-2-2-2-2-2-------------------------------------------|

e|---------------------------------------------------------------------------|
B|---------------------------------------------------------------------------|
G|---------------------------------------------------------------------------|
D|-7-----------7-----------7-------2-----------2-----------2-----------------|
A|-7-----------7-----------7-------2-----------2-----------2-----------------|
E|-5-5-5-5-5-5-5-5-5-5-5-5-5-5-5-5-0-0-0-0-0-0-0-0-0-0-0-0-0-0-0-0-----------|

e|---------------------------------------------------------------------------|
B|---------------------------------------------------------------------------|
G|---------------------------------7-----------7-----------7-----------------|
D|-4-----------4-----------4-------7-----------7-----------7-----------------|
A|-4-----------4-----------4-------5-5-5-5-5-5-5-5-5-5-5-5-5-5-5-5-----------|
E|-2-2-2-2-2-2-2-2-2-2-2-2-2-2-2-2-------------------------------------------|

e|---------------------------------------------------------------------------|
B|---------------------------------------------------------------------------|
G|---------------------------------------------------------------------------|
D|-7-----------7------------------6--6--6----7----4----6-7-------7--9--------|
A|-7-----------7------------------4--4--4----5----2----4-5-------5--7--------|
E|-5-5-5-5-5-5-5-5-5-5-5-5--7--8---------------------------------------------|

Post-Chorus
Guitar 1
e|9p0-9p0-9p0-14p0-16p0-14p0-9p0-14p0-16p0-14p0-9p0-14p0-16p0-14p0-9p0-------|
B|---------------------------------------------------------------------------|
G|---------------------------------------------------------------------------|
D|---------------------------------------------------------------------------|
A|---------------------------------------------------------------------------|
E|---------------------------------------------------------------------------|
Guitar 1 plays that twice

Guitar 2
e|14p0-14p0-14p0-17p0-19p0-17p0-14p0-17p0-19p0-17p0-14p0-17p0-19p0-17p0-14p0-|
B|---------------------------------------------------------------------------|
G|---------------------------------------------------------------------------|
D|---------------------------------------------------------------------------|
A|---------------------------------------------------------------------------|
E|---------------------------------------------------------------------------|
Guitar 2 plays that twice

Guitar 1
e|12p0-12p0-12p0-17p0-19p0-17p0-12p0|17p0-19p0-17p0-12p0-17p0-19p0-17p0-12p0-|
B|----------------------------------|----------------------------------------|
G|----------------------------------|----------------------------------------|
D|----------------------------------|----------------------------------------|
A|----------------------------------|----------------------------------------|
E|----------------------------------|----------------------------------------|
Guitar 1 plays that twice

Guitar 2
e|17p0-17p0-17p0-20p0-22p0-20p0-17p0|20p0-22p0-20p0-17p0-20p0-22p0-20p0-17p0-|
B|----------------------------------|----------------------------------------|
G|----------------------------------|----------------------------------------|
D|----------------------------------|----------------------------------------|
A|----------------------------------|----------------------------------------|
E|----------------------------------|----------------------------------------|
Guitar 2 plays that twice

Keyboard solo (For Guitar 2)
e|-12~~~--10h12h13-12p10h12-10p8h10-8p7h8-7p5h7---------7------7-------------|
B|-------------------------------------------------9------9------6--5--------|
G|---------------------------------------------------------------------------|
D|---------------------------------------------------------------------------|
A|---------------------------------------------------------------------------|
E|---------------------------------------------------------------------------|

e|-------------5/7--------6----6----6----6----7----6----7----8-----17t12p7p0-|
B|-3h5h6-5p3h5----------5----5----5----5----5----5----5----5-----------------|
G|---------------------------------------------------------------------------|
D|---------------------------------------------------------------------------|
A|---------------------------------------------------------------------------|
E|---------------------------------------------------------------------------|

e|-17t12p7p0-17t12p7p0-17t12p7p0---------------------------------------------|
B|---------------------------------------------------------------------------|
G|----------------------------------7/9-----7-----3-----2--------------------|
D|------------------------------------------------------------5--------------|
A|---------------------------------------------------------------------------|
E|---------------------------------------------------------------------------|

Rhythm for Keyboard solo (Guitar 1)
e|---------------------------------------------------------------------------|
B|---------------------------------------------------------------------------|
G|---------------------------------------------------------------------------|
D|-9---------------------------------...--9----7----3----2-------------------|
A|-7-7-7-7-7-7-7-7-5-5-8-8-5-5-5-5---...--7----5----1----0----5--------------|
E|-0---------------------------------...----------------------3--------------|
Play that rhythm part 7 times

New Verse (tremolo pick the bass notes)
Guitar 1
e|---------------------------------------------------------------------------|
B|---------------------------------------------------------------------------|
G|---------------------------------------------------------------------------|
D|-9-------7-------5------4------2--------------------4----------------------|
A|-7-7-...-5-5-...-3-3...-2-2...-0-0...-5------4------2-2...-----------------|
E|--------------------------------------3-5...-2-2...------------------------|

(Guitar 2 Enters)
e|-12+------7+----------12+----7+-----------------3p+------------------------|
B|---------------7+-------------------------1p+----------0p+---2p+----5p+-4p+|
G|-----------------------------------7+--------------------------------------|
D|---------------------------------------------------------------------------|
A|---------------------------------------------------------------------------|
E|---------------------------------------------------------------------------|
For the "p+" parts. Put one finger on the fret indicated i.e "1p+" = fret 1. Go up 12 
frets from that note and put a finger lightly over the fret. While your finger is over the 
fret, use your thumb to pluck the string.

e|---------------------------------------------------------------------------|
B|---------------------------------------------------------------------------|
G|---------------------------------------------------------------------------|
D|-9-------7-------5------4------2--------------------4----------------------|
A|-7-7-...-5-5-...-3-3...-2-2...-0-0...-5------4------2-2...-----------------|
E|--------------------------------------3-5...-2-2...------------------------|
New Verse 2 (Both Guitars, just strum the chords now)
e|--------------------------------|------------------------------------------|
B|--------------------------------|------------------------------------------|
G|--------------------------------|------------------------------------------|
D|-9---7---5---4---2-----------4--|--9---7---5---4---2-----------------------|
A|-7---5---3---2---0---5---4---2--|--7---5---3---2---0---5---4---2-----------|
E|---------------------3---2------|----------------------3---2---0-----------|

Pre-Solo (Guitar 1, Guitar 2 optional)
Tremolo pick the bass notes
*I didn't play those riff parts in the video (except for one), because of recording 
sound problems, but they are definitely there.
e|---------------------------|-----------------------------------------------|
B|---------------------------|-----------------------------------------------|
G|-2-------------------------|--3--------------------2-----------------------|
D|-2----------------2-0------|--3------------2-1-2-3-------------------------|
A|-0-0...--0-1-2-3------3-2--|--1-1...-1-3-5---------------------------------|
E----------------------------|-----------------------------------------------|

e|---------------------------|-----------------------------------------------|
B|---------------------------|-----------------------------------------------|
G|-2-------------------------|--3-------3-2-0--------------------------------|
D|-2----------------2-0------|--3-------------3-2-0--------------------------|
A|-0-0...--0-1-2-3------3-2--|--1-1...--------------3-2----------------------|
E----------------------------|-----------------------------------------------|

e|---------------------------|-----------------------------------------------|
B|---------------------------|-----------------------------------------------|
G|-2-------------------------|--3--------------------2-----------------------|
D|-2----------------2-0------|--3------------2-1-2-3-------------------------|
A|-0-0...--0-1-2-3------3-2--|--1-1...-1-3-5---------------------------------|
E----------------------------|-----------------------------------------------|

e|---------------------------|-----------------------------------------------|
B|---------------------------|-----------------------------------------------|
G|-2-------------------------|--4---5-----6---7-----8-----9------------------|
D|-2----------------2-0------|--4---5-----6---7-----8-----9------------------|
A|-0-0...--0-1-2-3------3-2--|--2---3-----4---5-----6-----7------------------|
E----------------------------|-----------------------------------------------|

(Guitar 2, pick up to solo)
e|---------------------------------------------------------------------------|
B|---------------------------------------------------------------------------|
G|----------------------------------------------------------------13-14-16---|
D|-------------------------------------------------------12-14-16------------|
A|-------------------------------------------------14-16---------------------|
E|---------------------------------------------------------------------------|
Tremolo pick the last two chords

Solo
(Guitar 2, Solo)
e|-13b14---14--14-12----17---------14----12-14-------------------------------|
B|-------------------14---------14----14-------14---12-------12--------------|
G|-----------------------------------------------------14-11----14-----------|
D|---------------------------------------------------------------------------|
A|---------------------------------------------------------------------------|
E|---------------------------------------------------------------------------|

Guitar 1 (Rhythm)*(Tremolo Pick all the chords tabbed out)*
e|---------------------------------------------------------------------------|
B|---------------------------------------------------------------------------|
G|---------------------------------------------------------------------------|
D|-4-------------------------------------------------------------------------|
A|-4-------------------------------------------------------------------------|
E|-2-------------------------------------------------------------------------|

Guitar 2
e|----------------12h14t17p14p12t19p16p14p12t17p16p14p12t19p16p14p12---------|
B|-------------12----------------------------------------------------12------|
G|----------13---------------------------------------------------------14-13~|
D|-------14------------------------------------------------------------------|
A|----14---------------------------------------------------------------------|
E|-12------------------------------------------------------------------------|

Guitar 1
e|---------------------------------------------------------------------------|
B|---------------------------------------------------------------------------|
G|---------------------------------------------------------------------------|
D|-2-------------------------------------------------------------------------|
A|-2-------------------------------------------------------------------------|
E|-0-------------------------------------------------------------------------|

Guitar 2
e|---------------------------------------------------------------------------|
B|-8b10-----8----------------------------------------------------------------|
G|------------9-7-9-7-8-9-7-5---7b+--5------5--------------------------------|
D|----------------------------7----------7----7------------------------------|
A|---------------------------------------------------------------------------|
E|---------------------------------------------------------------------------|

Guitar 1
e|---------------------------------------------------------------------------|
B|---------------------------------------------------------------------------|
G|-2-------------------------------------------------------------------------|
D|-2-------------------------------------------------------------------------|
A|-0-------------------------------------------------------------------------|
E|---------------------------------------------------------------------------|

Guitar 2
e|---------------------------------------------------------------------------|
B|------------------8h12p8h10h12t17p13h15h17p13h15h17t22---------------------|
G|-----------5h7t16--------------------------------------12t16p9p7t12--------|
D|t12p5h7t17-----------------------------------------------------------------|
A|---------------------------------------------------------------------------|
E|---------------------------------------------------------------------------|

Guitar 1
e|---------------------------------------------------------------------------|
B|---------------------------------------------------------------------------|
G|---------------------------------------------------------------------------|
D|-5-------------------------------------------------------------------------|
A|-5-------------------------------------------------------------------------|
E|-3-------------------------------------------------------------------------|

Guitar 2 *Spam that, I think 11 times*
e|---------------------------------------------------------------------------|
B|-----------11b13---11-8----8-------8---------------------------------------|
G|-*15p12p0*--------------10---10/12---10-8----8-10-11-10-8----8-10-8----8---|
D|------------------------------------------10--------------10--------10---10|
A|---------------------------------------------------------------------------|
E|---------------------------------------------------------------------------|

Guitar 1
e|---------------------------------------------------------------------------|
B|---------------------------------------------------------------------------|
G|-5-----------------3-------------------------------------------------------|
D|-5-----------------3-------------------------------------------------------|
A|-3-----------------1-------------------------------------------------------|
E|---------------------------------------------------------------------------|

Guitar 2
e|--------------------------------------------------------------------------------|
B|18b20-16--16-------------14h16t21p16p14h16t19p16p14h16t21p16p14h16t19p16p14h16--|
G|--------18--18b20-20-18---------------------------------------------------------|
D|-----------------------20-------------------------------------------------------|
A|--------------------------------------------------------------------------------|
E|--------------------------------------------------------------------------------|

Guitar 1
e|---------------------------------------------------------------------------|
B|---------------------------------------------------------------------------|
G|-8-------------------------------------------------------------------------|
D|-8-------------------------------------------------------------------------|
A|-6-------------------------------------------------------------------------|
E|---------------------------------------------------------------------------|

Guitar 2
e|-----------------------------------------------------------19b21-----------|
B|18-16-------16----16--9-----11-9------9---------9--------------------------|
G|------15-18----18------11-8------11-8---11-8------11-8---------------------|
D|---------------------------------------------11--------11------------------|
A|---------------------------------------------------------------------------|
E|---------------------------------------------------------------------------|

Guitar 1
e|---------------------------------------------------------------------------|
B|---------------------------------------------------------------------------|
G|---------------------------------------------------------------------------|
D|-6-------------------------------------------------------------------------|
A|-6-------------------------------------------------------------------------|
E|-4-------------------------------------------------------------------------|

Guitar 2
e|---------------------------------------------------------------------------|
B|--------17-14-------17/22-21-19-17-15-14-14h15-14----------14-15b17br15-14-|
G|-----18-------16-14-------------------------------16-14-16-----------------|
D|9/16-----------------------------------------------------------------------|
A|---------------------------------------------------------------------------|
E|---------------------------------------------------------------------------|

Guitar 1
e|--------17-16----------21-19-17--------------------------------------------|
B|-----17-------17----------------21-19-17--/19-17-15---15-17-20b22br20-19-18|
G|9/14-------------16---------------------------------18---------------------|
D|---------------------------------------------------------------------------|
A|---------------------------------------------------------------------------|
E|---------------------------------------------------------------------------|

Guitar 2
e|------------14-16-17---16-14-----------------|-----------------------------|
B|------15-17------------------17-15-----------|---------17b19--17b19--------|
G|16-18------------------------------18-16-14--|-----------------------------|
D|---------------------------------------------|-----------------------------|
A|---------------------------------------------|-----------------------------|
E|---------------------------------------------|-----------------------------|
Play first measure part 3 times

Guitar 1 (Back to tremolo picking chords)
e|---------------------------------------------------------------------------|
B|---------------------------------------------------------------------------|
G|-----------2--------------------15b17--15b17-------------------------------|
D|-4---------2---------4-----------------------------------------------------|
A|-4---------0---------4-----------------------------------------------------|
E|-2-------------------2-----------------------------------------------------|
Solo end

Post Solo and bass solo (both guitars)
e|---------------------------------------------------------------------------|
B|---------------------------------------------------------------------------|
G|-4----------4----------4---------------------------------------------------|
D|-4----------4----------4----------5------7---------------------------------|
A|-2----------2----------2----------5------7---------------------------------|
E|----------------------------------3------5---------------------------------|

Guitar 2
e|--------------------------------------------------3---4-----5---0-1-4-5----|
B|----7-10--6-9---7--9--10----------------------------4---5---------------5--|
G|-------------------------9--7-9-7---7-6---6-4---6---------5----------------|
D|-9--------------------------------4-----2----------------------------------|
A|---------------------------------------------------------------------------|
E|---------------------------------------------------------------------------|

Guitar 1
e|---------------------------------------------------------------------------|
B|---------------------------------------------------------------------------|
G|---------------------------------------------------------------------------|
D|----4-7--3-6---4-6-7----------------------------4--6--8--10----4-6-10-15-9-|
A|---------------------7------5-7-5---5-4--4------2--4--6--8-----2-4-8--13-7-|
E|-7--------------------------------2-----0----------------------------------|

Flute solo (Guitar 1)
e|--------10-10h12p10--/17-17~~-15-13-12h13p12--8-10-5h6p5--5-5h6p5--10-10h12p10--|
B|----10--------------------------------------------------------------------------|
G|--7-----------------------------------------------------------------------------|
D|0-------------------------------------------------------------------------------|
A|--------------------------------------------------------------------------------|
E|--------------------------------------------------------------------------------|

Guitar 1
e|-9-9h10p9-\5~~-------------------------------------------------------------|
B|---------------6b8br6------------------------------------------------------|
G|----------------------7--\3-----5-----7--9--10--12-------------------------|
D|---------------------------------------------------------------------------|
A|---------------------------------------------------------------------------|
E|---------------------------------------------------------------------------|

Guitar 2
e|---------------------------------------------------------------------------|
B|---------------------------------------------------------------------------|
G|---------------------------------------------------------------------------|
D|--------------------------------------7--9--10--12-------------------------|
A|--------------------------------------5--7--8--10--------------------------|
E|---------------------------------------------------------------------------|

Guitar 1
e|-17-----15---12---10---12---13---15---17-17------20--20-20-----------------|
B|---------------------------------------------------------------------------|
G|---------------------------------------------------------------------------|
D|---------------------------------------------------------------------------|
A|---------------------------------------------------------------------------|
E|---------------------------------------------------------------------------|

Guitar 2
e|---------------------------------------------------------------------------|
B|---------------------------------------------------------------------------|
G|-3------5---------------7---5--------3-3----------5---5--5-----------------|
D|-3------5--------7------7---5--------3-3----------5---5--5-----------------|
A|-1------3--------7------5---3--------1-1----------3---3--3-----------------|
E|-----------------5---------------------------------------------------------|

Guitar 2
e|14-14-15---12-12-14--------12-14--14-13---2--3--0--2------0---2---2-1------|
B|---------------------15-15-----------------------------3-------------------|
G|---------------------------------------------------------------------------|
D|---------------------------------------------------------------------------|
A|---------------------------------------------------------------------------|
E|---------------------------------------------------------------------------|

Guitar 1
e|---------------------------------------------------------------------------|
B|---------------------------------------------------------------------------|
G|---------------------------------------------------------------------------|
D|-----9--------7---------------------------9----7---------------------------|
A|-9-9-7----7-7-5-----5--5--5--5---5-4----9-7--7-5---5--5--5--5---5-4--------|
E|-7-7------5-5-------3--3--3--3---3-2----7----5-----3--3--3--3---3-2--------|

Chorus (Both Guitars)
e|-------------------------------|-------------------------------------------|
B|-------------------------------|-------------------------------------------|
G|--------7-7--------------------|-----------------------------------7-7-7---|
D|-4-4----7-7----7-7----2---2-2--|---2-2-2---2-2-2---2-2-2---2-2-2---7-7-7---|
A|-4-4----5-5----7-7----2---2-2--|---2-2-2---2-2-2---2-2-2---2-2-2---5-5-5---|
E|-2-2-----------5-5----0---0-0--|---0-0-0---0-0-0---0-0-0---0-0-0-----------|

e|---------------------------------------------------------------------------|
B|---------------------------------------------------------------------------|
G|7-7-7---7-7-7---7-7-7------------------------------------------------------|
D|7-7-7---7-7-7---7-7-7---7-7-7---7-7-7---7-7-7------------------------------|
A|5-5-5---5-5-5---5-5-5---7-7-7---7-7-7---7-7-7------------------------------|
E|------------------------5-5-5---5-5-5---5-5-5--7--8------------------------|

e|---------------------------------------------------------------------------|
B|---------------------------------------------------------------------------|
G|---------------------------------7-----------7-----------7-----------------|
D|-4-----------4-----------4-------7-----------7-----------7-----------------|
A|-4-----------4-----------4-------5-5-5-5-5-5-5-5-5-5-5-5-5-5-5-5-----------|
E|-2-2-2-2-2-2-2-2-2-2-2-2-2-2-2-2-------------------------------------------|

e|---------------------------------------------------------------------------|
B|---------------------------------------------------------------------------|
G|---------------------------------------------------------------------------|
D|-7-----------7-----------7-------2-----------2-----------2-----------------|
A|-7-----------7-----------7-------2-----------2-----------2-----------------|
E|-5-5-5-5-5-5-5-5-5-5-5-5-5-5-5-5-0-0-0-0-0-0-0-0-0-0-0-0-0-0-0-0-----------|

e|---------------------------------------------------------------------------|
B|---------------------------------------------------------------------------|
G|---------------------------------7-----------7-----------7-----------------|
D|-4-----------4-----------4-------7-----------7-----------7-----------------|
A|-4-----------4-----------4-------5-5-5-5-5-5-5-5-5-5-5-5-5-5-5-5-----------|
E|-2-2-2-2-2-2-2-2-2-2-2-2-2-2-2-2-------------------------------------------|

e|---------------------------------------------------------------------------|
B|---------------------------------------------------------------------------|
G|---------------------------------------------------------------------------|
D|-7-----------7------------------6--6--6----7----4----6-7-------7--9--------|
A|-7-----------7------------------4--4--4----5----2----4-5-------5--7--------|
E|-5-5-5-5-5-5-5-5-5-5-5-5--7--8---------------------------------------------|

Post-Chorus
Guitar 1
e|9p0-9p0-9p0-14p0-16p0-14p0-9p0-14p0-16p0-14p0-9p0-14p0-16p0-14p0-9p0-------|
B|---------------------------------------------------------------------------|
G|---------------------------------------------------------------------------|
D|---------------------------------------------------------------------------|
A|---------------------------------------------------------------------------|
E|---------------------------------------------------------------------------|
Guitar 1 plays that twice

Guitar 2
e|14p0-14p0-14p0-17p0-19p0-17p0-14p0-17p0-19p0-17p0-14p0-17p0-19p0-17p0-14p0-|
B|---------------------------------------------------------------------------|
G|---------------------------------------------------------------------------|
D|---------------------------------------------------------------------------|
A|---------------------------------------------------------------------------|
E|---------------------------------------------------------------------------|
Guitar 2 plays that twice

Guitar 1
e|12p0-12p0-12p0-17p0-19p0-17p0-12p0|17p0-19p0-17p0-12p0-17p0-19p0-17p0-12p0-|
B|----------------------------------|----------------------------------------|
G|----------------------------------|----------------------------------------|
D|----------------------------------|----------------------------------------|
A|----------------------------------|----------------------------------------|
E|----------------------------------|----------------------------------------|
Guitar 1 plays that twice

Guitar 2
e|17p0-17p0-17p0-20p0-22p0-20p0-17p0|20p0-22p0-20p0-17p0-20p0-22p0-20p0-17p0-|
B|----------------------------------|----------------------------------------|
G|----------------------------------|----------------------------------------|
D|----------------------------------|----------------------------------------|
A|----------------------------------|----------------------------------------|
E|----------------------------------|----------------------------------------|
Guitar 2 plays that twice

Outro

Guitar 1
e|----------------------------------------------------------------|
B|----------------------------------------------------------------|
G|-5--------4--------2------------------------------------5----4--|
D|-5--------5--------2--------5--------3---------4--------5----5--|
A|-3--------2--------0--------5--------3---------5--------5----5--|
E|----------------------------3--------1---------2--------3----3--|

Guitar 2
e|---------------------------------------------------------------------------|
B|-17-17-20-20---------17--17h18-17------------------------------------------|
G|-------------17---19--------------19-17--17-17h19p17p16--------------------|
D|---------------------------------------------------------------------------|
A|---------------------------------------------------------------------------|
E|---------------------------------------------------------------------------|

Guitar 1
e|---------------------------------------------------------|
B|---------------------------------------------------------|
G|--5--------4--------3--------2---------------------------|
D|--5--------5--------5--------2--------3--------5---------|
A|--3--------2--------1--------0--------3--------5---------|
E|--------------------------------------1--------3---------|


Guitar 2
e|---------------------------------------------------------------------------|
B|-17-17-20-20---------17--17h18-17------------------------------------------|
G|-------------17---19--------------19-17------------------------------------|
D|---------------------------------------------------------------------------|
A|---------------------------------------------------------------------------|
E|---------------------------------------------------------------------------|



Guitar 2
e|-17-17-17-18--15--17--------------17-17-17-18-15-17\-----------------------|
B|---------------------17--17-18-20------------------------------------------|
G|---------------------------------------------------------------------------|
D|---------------------------------------------------------------------------|
A|---------------------------------------------------------------------------|
E|---------------------------------------------------------------------------|

Guitar 1
e|---------------------------------------------------------------------------|
B|---------------------------------------------------------------------------|
G|---------------------------------------------------------------------------|
D|---------------------------------------------------------------------------|
A|-7-7-7--8--5--7--2--2-3-5--7-7-7--8--5--7\---------------------------------|
E|-5-5-5--6--3--5--0--0-1-3--5-5-5--6--3--5\---------------------------------|

************************************

| /   slide up
| \   slide down
| h   hammer-on
| p   pull-off
| t   tap
| ~   vibrato
| +   harmonic
| x   Mute note
| b   Bend
| pb  Pre-bend
| br  Bend release
| pbr Pre-bend release
| brb Bend release bend

************************************
comments
print report bad tab
3 comments total.
+2 reply
hdcard wrote on August 7 2013, 04:50 am

Although im not so good at guitar I can see ur effort on this. Keep up the good work

0 reply
Omnicae wrote on October 20 2013, 12:28 pm

Found a little mistake here while playing it through
__________________________________________________________________________
Chorus (Both Guitars)
e|-------------------------------|-----------------------------------------
B|-------------------------------|-----------------------------------------
G|--------7-7--------------------|-----------------------------------7-7-7-
D|-4-4----7-7----7-7----2---2-2--|---2-2-2---2-2-2---2-2-2---2-2-2---7-7-7-
A|-4-4----5-5----7-7----2---2-2--|---2-2-2---2-2-2---2-2-2---2-2-2---5-5-5-
E|-2-2-----------5-5----0---0-0--|---0-0-0---0-0-0---0-0-0---0-0-0---------

e|-------------------------------------------------------------------------
B|-------------------------------------------------------------------------
G|7-7-7---7-7-7---7-7-7----------------------------------------------------
D|7-7-7---7-7-7---7-7-7---7-7-7---7-7-7---7-7-7----------------------------
A|5-5-5---5-5-5---5-5-5---7-7-7---7-7-7---7-7-7----------------------------
E|------------------------5-5-5---5-5-5---5-5-5--7--8---------------------

__________________________________________________________________________

There is a mistake here, that 2nd E-power chord in the 1st Tab, it's should be a F# power chord like in the rest of the song. And that first E, should be 12 times, just like the chords after that. Just a little mistake in a furthermore beautiful tab though.

Thanks for putting this on the internet!

0 reply
SimbaSpyro wrote on October 28 2014, 04:15 pm

THANK YOU! THIS IS PERFECT!

I want to post or [tab]
guest
You may want to rate the tab now too:
select rating
Please do not post tabs as comments. Select "correction" instead!