Oops, an error
Loading. Please wait.

Mark Gormley - Without You Tab

764 views 21 this week
no commentswrite comment
1 2 3 4 5
worth learning
x 2
add to favorites launch autoscroll
font size
0
reset
Autoscroll
+/-
esc
set tempo
stop
Contributor
WARNING: You are trying to view
                                    content from Ultimate-Guitar.com
                                    in an unauthorized application,
                                    which is prohibited.

                                    Please use an official Ultimate
                                    Guitar Tabs application for iPhone,
                                    iPad or Android to access legitimate
                                    chords, guitar, bass, and drum tabs
                                    from Ultimate-Guitar.com database.

                                    Type "ultimate guitar tabs" in Apple
                                    App Store's or Android Market's
                                    search to find the application.
-------------------------------------------------------------------------------
                             WITHOUT YOU - Mark Gormley
-------------------------------------------------------------------------------

An Intense Song

Intro:
e|--------------------------------------------------------------------------|
B|--------------------------------------------------------------------------|
G|-------7----------------7-------------------------------------------------|
D|-5-----7--9-----7--5----7---7---9-9-----7---------------------------------|
A|-5-----5--9-----7--5----5---7---9-9-----7---------------------------------|
E|-3--------7-----5--3--------5---7-7-----5---------------------------------|

e|--------------------------------------------------------------------------|
B|--------------------------------------------------------------------------|
G|------------------------------------7-------------------------------------|
D|-5-5----7-7----9-9----4-4----5-5----7--7----------------------------------|
A|-5-5----7-7----9-9----4-4----5-5----5--7----------------------------------|
E|-3-3----5-5----7-7----2-2----3-3-------5----------------------------------|

Riff Lead:
e|--------------------------------------------------------------------------|
B|--------------------------------------------------------------------------|
G|--------------------------------------------------------------------------|
D|--------------------------------------------------------------------------|
A|-----4-5---5h7p4----------------4-5---5h7p4----7--------------------------|
E|-7---------------5---4---5--7---------------5-----------------------------|

e|--------------------------------------------------------------------------|
B|--------------------------------------------------------------------------|
G|--------------------------------------------------------------------------|
D|--------------------------------------------------------------------------|
A|-----4-5---5h7p4----------------4-5---5h7p4----7--7h9-7-------------------|
E|-7---------------5---4---5--7---------------5-----------------------------|

Riff Rhythm:
e|--------------------------------------------------------------------------|
B|-------------3-------------------------------3----------------------------|
G|-----4-----2--2-----2-------1--------4-----2---2-----2----1h2p1-----------|
D|---4---4-0--------2-------2---2----4---4-0---------2------2---------------|
A|-2--------------0-------2--------2---------------0-------2----------------|
E|----------------------4---------------------------------0-----------------| x2

Verse 1:
e|--------------------------------------------------------------------------|
B|--------------------------------------------------------------------------|
G|---------------7-7--------------------------------------------------------|
D|-9-9----4-4----7-7----7-7----9-9----4-4----5-5----7-7---------------------|
A|-9-9----4-4----5-5----7-7----9-9----4-4----5-5----7-7---------------------|
E|-7-7----2-2-----------5-5----7-7----2-2----3-3----5-5---------------------| x2

e|--------------------------------------------------------------------------|
B|-------------3-------------------------------3----------------------------|
G|-----4-----2--2-----2-------1--------4-----2---2-----2----1h2p1-----------|
D|---4---4-0--------2-------2---2----4---4-0---------2------2---------------|
A|-2--------------0-------2--------2---------------0-------2----------------|
E|----------------------4---------------------------------0-----------------|

e|--------------------------------------------------------------------------|
B|--------------------------------------------------------------------------|
G|---------------7-7--------------------------------------------------------|
D|-9-9----4-4----7-7----7-7----9-9----4-4----5-5----7-7---------------------|
A|-9-9----4-4----5-5----7-7----9-9----4-4----5-5----7-7---------------------|
E|-7-7----2-2-----------5-5----7-7----2-2----3-3----5-5---------------------| x2

Chorus 1:
e|--------------------------------------------------------------------------|
B|--------------------------------------------------------------------------|
G|--------------------------------------------------------------------------|
D|-9-7-9---7---5--4-5-7--5-7-9--7-9-12--11-9-5--4-5-7--5-7------------------|
A|-9-7-9---7---5--4-5-7--5-7-9--7-9-12--11-9-5--4-5-7--5-7------------------|
E|-7-5-7---5---3--2-3-5--3-5-7--5-7-10---9-7-3--2-3-5--3-5------------------| x2

e|--------------------------------------------------------------------------|
B|--------------------------------------------------------------------------|
G|-------7----------------7-------------------------------------------------|
D|-5-----7--9-----7--5----7---7---9-9-----7---------------------------------|
A|-5-----5--9-----7--5----5---7---9-9-----7---------------------------------|
E|-3--------7-----5--3--------5---7-7-----5---------------------------------|

Extra Licks:
e|--------------------------------------------------------------------------|
B|--------------------------------------------------------------------------|
G|----------------------------------------------------------9-11-12-12--12--|
D|-9-11-12-11-9------------------------------------9-11-12------------------|
A|---------------12-10------------------------------------------------------|
E|--------------------------------------------------------------------------|

e|--------------------------------------------------------------------------|
B|--------------------------------------------------------------------------|
G|------------------------------------7-------------------------------------|
D|-5-5----7-7----9-9----4-4----5-5----7--7----------------------------------|
A|-5-5----7-7----9-9----4-4----5-5----5--7----------------------------------|
E|-3-3----5-5----7-7----2-2----3-3-------5----------------------------------|

Riff:
e|--------------------------------------------------------------------------|
B|-------------3-------------------------------3----------------------------|
G|-----4-----2--2-----2-------1--------4-----2---2-----2----1h2p1-----------|
D|---4---4-0--------2-------2---2----4---4-0---------2------2---------------|
A|-2--------------0-------2--------2---------------0-------2----------------|
E|----------------------4---------------------------------0-----------------| x2

Riff Harmony:
e|--------------------------------------------------------------------------|
B|--------7---7h8p7--------------------7---7h8p7-----10--/12-10-------------|
G|-7---9-----------7---6---6h7p6----9-----------7---------------------------|
D|-------------------------------9------------------------------------------|
A|--------------------------------------------------------------------------|
E|--------------------------------------------------------------------------|

Verse 2:
e|--------------------------------------------------------------------------|
B|--------------------------------------------------------------------------|
G|---------------7-7--------------------------------------------------------|
D|-9-9----4-4----7-7----7-7----9-9----4-4----5-5----7-7---------------------|
A|-9-9----4-4----5-5----7-7----9-9----4-4----5-5----7-7---------------------|
E|-7-7----2-2-----------5-5----7-7----2-2----3-3----5-5---------------------| x2

Chorus 2:
e|--------------------------------------------------------------------------|
B|--------------------------------------------------------------------------|
G|--------------------------------------------------------------------------|
D|-9-7-9---7---5--4-5-7--5-7-9--7-9-12--11-9-5--4-5-7--5-7------------------|
A|-9-7-9---7---5--4-5-7--5-7-9--7-9-12--11-9-5--4-5-7--5-7------------------|
E|-7-5-7---5---3--2-3-5--3-5-7--5-7-10---9-7-3--2-3-5--3-5------------------| x2

e|--------------------------------------------------------------------------|
B|--------------------------------------------------------------------------|
G|-------7----------------7-------------------------------------------------|
D|-5-----7--9-----7--5----7---7---9-9-----7---------------------------------|
A|-5-----5--9-----7--5----5---7---9-9-----7---------------------------------|
E|-3--------7-----5--3--------5---7-7-----5---------------------------------|

Extra Licks:
e|---------------------------------------------------------12-14-15-15--15--|
B|-12-14-15-14-12--------------------------------12-14-15-------------------|
G|----------------14-12-----------------------------------------------------|
D|--------------------------------------------------------------------------|
A|--------------------------------------------------------------------------|
E|--------------------------------------------------------------------------|

e|--------------------------------------------------------------------------|
B|--------------------------------------------------------------------------|
G|------------------------------------7-------------------------------------|
D|-5-5----7-7----9-9----4-4----5-5----7--7----------------------------------|
A|-5-5----7-7----9-9----4-4----5-5----5--7----------------------------------|
E|-3-3----5-5----7-7----2-2----3-3-------5----------------------------------|

Riff Lead:
e|--------------------------------------------------------------------------|
B|--------------------------------------------------------------------------|
G|--------------------------------------------------------------------------|
D|--------------------------------------------------------------------------|
A|-----4-5---5h7p4----------------4-5---5h7p4----7--------------------------|
E|-7---------------5---4---5--7---------------5-----------------------------|

e|--------------------------------------------------------------------------|
B|--------------------------------------------------------------------------|
G|--------------------------------------------------------------------------|
D|--------------------------------------------------------------------------|
A|-----4-5---5h7p4----------------4-5---5h7p4----7--7h9-7-------------------|
E|-7---------------5---4---5--7---------------5-----------------------------|

e|--------------------------------------------------------------------------|
B|--------------------------------------------------------------------------|
G|-----6-7---7h9p6----------------6-7---7h9p6----9--------------------------|
D|-9---------------7---6---7--9---------------7-----------------------------|
A|--------------------------------------------------------------------------|
E|--------------------------------------------------------------------------|

e|-----9-10--10h12p9---------------9-10--10h12p9-----12-12h14-12------------|
B|-12----------------10--9--10-12----------------10-------------------------|
G|--------------------------------------------------------------------------|
D|--------------------------------------------------------------------------|
A|--------------------------------------------------------------------------|
E|--------------------------------------------------------------------------|

Riff Rhythm:
e|--------------------------------------------------------------------------|
B|--------------------------------------------------------------------------|
G|--------7-7--------------------------7-7----------9--9-9------------------|
D|-9-9----7-7----7-7----7---7---9-9----7-7----7-7---9--9-9------------------|
A|-9-9----5-5----7-7----7---7---9-9----5-5----7-7---7--7-7------------------|
E|-7-7-----------5-5----4---5---7-9------------5-5--------------------------| x4

Outro:
e|--------------------------------------------------------------------------|
B|--------------------------------------------------------------------------|
G|---------7----------------------------------------------------------------|
D|-5-4-5---7----7-----9-----------------------------------------------------|
A|-5-4-5---5----7-----9-----------------------------------------------------|
E|-3-2-3--------5-----7-----------------------------------------------------|

************************************

| /   slide up
| \   slide down
| h   hammer-on
| p   pull-off
| ~   vibrato
| +   harmonic
| x   Mute note
| b   Bend
| pb  Pre-bend
| br  Bend release
| pbr Pre-bend release
| brb Bend release bend

************************************
comments
We did not receive enough feedback on this tab! Please rate:
1 2 3 4 5
I want to post or [tab]
guest
You may want to rate the tab now too:
select rating
Please do not post tabs as comments. Select "correction" instead!