Oops, an error
Loading. Please wait.

Mark Their Silence - Delusion Tab

43 views 1 this week
no commentswrite comment
1 2 3 4 5
excellent!
x 1
add to favorites launch autoscroll
font size
0
reset
Autoscroll
+/-
esc
set tempo
stop
Contributor
Difficulty
advanced
WARNING: You are trying to view
                                    content from Ultimate-Guitar.com
                                    in an unauthorized application,
                                    which is prohibited.

                                    Please use an official Ultimate
                                    Guitar Tabs application for iPhone,
                                    iPad or Android to access legitimate
                                    chords, guitar, bass, and drum tabs
                                    from Ultimate-Guitar.com database.

                                    Type "ultimate guitar tabs" in Apple
                                    App Store's or Android Market's
                                    search to find the application.
Guitar 1 

                       E.   E.  E   S   S  S   S   S   S   S  S  
D ||-------|-------|--------------------------------------------|
A ||-------|-------|--------------------------------------------|
F ||-------|-------|--------------------------------------------|
C ||-------|-------|--------------------------------------------|
G ||-------|-------|----------------------10h-11p-10h-----------|
A#||-------|-------|--12~---0---0--10h-12-------------12p-10p-0-|


   E.   E.  E   S   S  S   S   S   S   S  S  
--------------------------------------------|
--------------------------------------------|
--------------------------------------------|
--------------------------------------------|
----------------------10h-11p-10h-----------|
--12~---0---0--10h-12-------------12p-10p-0-|


   E.   E.  E   S   S  S   S   S   S   S  S  
--------------------------------------------|
--------------------------------------------|
--------------------------------------------|
--------------------------------------------|
----------------------13h-15p-13h-----------|
--15~---0---0--14h-15-------------15p-14p-0-|


   E.   E.  E   S   S  S   S   S   S   S  S  
--------------------------------------------|
--------------------------------------------|
--------------------------------------------|
--------------------------------------------|
----------------------13h-15p-13h-----------|
--15~---0---0--14h-15-------------15p-14p-0-|


   E.   E.  E   S   S  S   S   S   S   S  S  
--------------------------------------------|
--------------------------------------------|
--------------------------------------------|
--------------------------------------------|
----------------------10h-11p-10h-----------|
--12~---0---0--10h-12-------------12p-10p-0-|


   E.   E.  E   S   S  S   S   S   S   S  S  
--------------------------------------------|
--------------------------------------------|
--------------------------------------------|
--------------------------------------------|
----------------------10h-11p-10h-----------|
--12~---0---0--10h-12-------------12p-10p-0-|


        PM  PM                               
   E.   E.  E   S   S  S   S   S   S   S  S  
--------------------------------------------|
--------------------------------------------|
--------------------------------------------|
--------------------------------------------|
----------------------13h-15p-13h-----------|
--15~---0---0--14h-15-------------15p-14p-0-|


        PM  PM                               
   E.   E.  E   S   S  S   S   S   S   S  S  
--------------------------------------------|
--------------------------------------------|
--------------------------------------------|
--------------------------------------------|
----------------------13h-15p-13h-----------|
--15~---0---0--14h-15-------------15p-14p-0-|


   E.   E.  E   S   S  S   S   S   S   S  S  
--------------------------------------------|
--------------------------------------------|
--------------------------------------------|
--------------------------------------------|
----------------------10h-11p-10h-----------|
--12~---0---0--10h-12-------------12p-10p-0-|


   E.   E.  E   S   S  S   S   S   S   S  S  
--------------------------------------------|
--------------------------------------------|
--------------------------------------------|
--------------------------------------------|
----------------------10h-11p-10h-----------|
--12~---0---0--10h-12-------------12p-10p-0-|


   E.   E.  E   S   S  S   S   S   S   S  S  
--------------------------------------------|
--------------------------------------------|
--------------------------------------------|
--------------------------------------------|
----------------------13h-15p-13h-----------|
--15~---0---0--14h-15-------------15p-14p-0-|


   E.   E.  E   S   S  S   S   S   S   S  S  
--------------------------------------------|
--------------------------------------------|
--------------------------------------------|
--------------------------------------------|
----------------------13h-15p-13h-----------|
--15~---0---0--14h-15-------------15p-14p-0-|


   E.   E.  E   S   S  S   S   S   S   S  S  
--------------------------------------------|
--------------------------------------------|
--------------------------------------------|
--------------------------------------------|
----------------------10h-11p-10h-----------|
--12~---0---0--10h-12-------------12p-10p-0-|


   E.   E.  E   S   S  S   S   S   S   S  S  
--------------------------------------------|
--------------------------------------------|
--------------------------------------------|
--------------------------------------------|
----------------------10h-11p-10h-----------|
--12~---0---0--10h-12-------------12p-10p-0-|


   E.   E.  E   S   S  S   S   S   S   S  S  
--------------------------------------------|
--------------------------------------------|
--------------------------------------------|
--------------------------------------------|
----------------------13h-15p-13h-----------|
--15~---0---0--14h-15-------------15p-14p-0-|


   E.   E.  E   S   S  S   S   S   S   S  S  
--------------------------------------------|
--------------------------------------------|
--------------------------------------------|
--------------------------------------------|
----------------------13h-15p-13h-----------|
--15~---0---0--14h-15-------------15p-14p-0-|


        PM  PM PM PM PM                      PM  PM PM PM PM              
  E.    E.  E  S  S  S  S S  S  S S    E.    E.  E  S  S  S  S S  S  S S  
------------------------------------|------------------------------------|
------------------------------------|------------------------------------|
------------------------------------|------------------------------------|
------------------------------------|------------------------------------|
------------------------------------|------------------------------------|
--3b~---0---0--7h-8p-7--0-7h-8p-7-0-|--3b~---0---0--7h-8p-7--0-7h-8p-7-0-|


  PM PM   PM PM   PM PM   PM PM   PM PM  
  S  S  S S  S  S S  S  S S  S  S E  E   
----------------------------------------|
----------------------------------------|
----------------------------------------|
----------------------------------------|
--0--0----0--0----0--0----0--0----0--0--|
--1--1----1--1----1--1----1--1----1--1--|


  PM PM   PM PM   PM PM   PM PM   PM PM          PM  PM PM PM PM              
  S  S  S S  S  S S  S  S S  S  S E  E     E.    E.  E  S  S  S  S S  S  S S  
----------------------------------------|------------------------------------|
----------------------------------------|------------------------------------|
----------------------------------------|------------------------------------|
----------------------------------------|------------------------------------|
--0--0----0--0----0--0----0--0----0--0--|------------------------------------|
--1--1----1--1----1--1----1--1----1--1--|--3b~---0---0--7h-8p-7--0-7h-8p-7-0-|


        PM  PM PM PM PM                PM PM   PM PM   PM PM   PM PM          
  E.    E.  E  S  S  S  S S  S  S S    S  S  S S  S  S S  S  S S  S  S E  E   
------------------------------------|----------------------------------------|
------------------------------------|----------------------------------------|
------------------------------------|----------------------------------------|
------------------------------------|----------------------------------------|
------------------------------------|--0--0----0--0----0--0----0--0----0--0--|
--3b~---0---0--7h-8p-7--0-7h-8p-7-0-|--1--1----1--1----1--1----1--1----1--1--|


  PM PM   PM PM   PM PM   PM PM          
  S  S  S S  S  S S  S  S S  S  S E  E   
----------------------------------------|
----------------------------------------|
----------------------------------------|
----------------------------------------|
--0--0----0--0----0--0----0--0----0--0--|
--1--1----1--1----1--1----1--1----1--1--|


  PM PM PM PM PM PM PM PM PM PM PM PM PM PM PM PM PM  
  S  S  S  S  S  S  S  S  S  S  S  S  S  S  S  T  T   
-----------------------------------------------------|
-----------------------------------------------------|
-----------------------------------------------------|
-----------------------------------------------------|
-----------------------------------------------------|
--0--0--0--0--0--0--0--0--0--0--0--0--0--0--0--0--0--|


  PM PM PM PM PM PM PM PM                      
  S  S  S  S  S  S  S  S  S  S  S S S  S  S S  
----------------------------------------------|
----------------------------------------------|
----------------------------------------------|
----------------------------------------------|
----------------------------------------------|
--0--0--0--0--0--0--0--0--7h-8p-7-0-7h-8p-7-0-|


  PM PM PM PM PM PM PM PM PM PM PM PM PM PM PM PM PM  
  S  S  S  S  S  S  S  S  S  S  S  S  S  S  S  T  T   
-----------------------------------------------------|
-----------------------------------------------------|
-----------------------------------------------------|
-----------------------------------------------------|
-----------------------------------------------------|
--0--0--0--0--0--0--0--0--0--0--0--0--0--0--0--0--0--|


  PM PM PM PM PM PM PM PM                                                  
  S  S  S  S  S  S  S  S   E.  E.  E  E.  E.  E     E.  E.  E  E.  E.  E   
-------------------------------------------------|------------------------|
-------------------------------------------------|------------------------|
-------------------------------------------------|------------------------|
-------------------------------------------------|------------------------|
--------------------------10---8---6--8---6---5--|--6---6---6--6---6---6--|
--0--0--0--0--0--0--0--0-------------------------|--8---8---8--8---8---8--|


   E.   E.   E   E.   E.   E      E.   E.  E   S   S  S   S   S   S   S  S  
------------------------------|--------------------------------------------|
------------------------------|--------------------------------------------|
------------------------------|--------------------------------------------|
------------------------------|--------------------------------------------|
---8----8----8---8----8----8--|----------------------10h-11p-10h-----------|
--10---10---10--10---10---10--|--12~---0---0--10h-12-------------12p-10p-0-|


   E.   E.  E   S   S  S   S   S   S   S  S    E.  E.  E  E.  E.  E   
--------------------------------------------|------------------------|
--------------------------------------------|------------------------|
--------------------------------------------|------------------------|
--------------------------------------------|------------------------|
----------------------10h-11p-10h-----------|--6---6---6--6---6---6--|
--12~---0---0--10h-12-------------12p-10p-0-|--8---8---8--8---8---8--|


   E.   E.   E   E.   E.   E      E.   E.  E   S   S  S   S   S   S   S  S  
------------------------------|--------------------------------------------|
------------------------------|--------------------------------------------|
------------------------------|--------------------------------------------|
------------------------------|--------------------------------------------|
---8----8----8---8----8----8--|----------------------13h-15p-13h-----------|
--10---10---10--10---10---10--|--15~---0---0--14h-15-------------15p-14p-0-|


   E.   E.  E   S   S  S   S   S   S   S  S       
--------------------------------------------|----|
--------------------------------------------|----|
--------------------------------------------|----|
--------------------------------------------|----|
----------------------13h-15p-13h-----------|----|
--15~---0---0--14h-15-------------15p-14p-0-|----|


   E.   E.  E   S   S  S   S   S   S   S  S  
--------------------------------------------|
--------------------------------------------|
--------------------------------------------|
--------------------------------------------|
----------------------10h-11p-10h-----------|
--12~---0---0--10h-12-------------12p-10p-0-|


   E.   E.  E   S   S  S   S   S   S   S  S  
--------------------------------------------|
--------------------------------------------|
--------------------------------------------|
--------------------------------------------|
----------------------10h-11p-10h-----------|
--12~---0---0--10h-12-------------12p-10p-0-|


   E.   E.  E   S   S  S   S   S   S   S  S  
--------------------------------------------|
--------------------------------------------|
--------------------------------------------|
--------------------------------------------|
----------------------13h-15p-13h-----------|
--15~---0---0--14h-15-------------15p-14p-0-|


   E.   E.  E   S   S  S   S   S   S   S  S  
--------------------------------------------|
--------------------------------------------|
--------------------------------------------|
--------------------------------------------|
----------------------13h-15p-13h-----------|
--15~---0---0--14h-15-------------15p-14p-0-|


   E.   E.  E   S   S  S   S   S   S   S  S  
--------------------------------------------|
--------------------------------------------|
--------------------------------------------|
--------------------------------------------|
----------------------10h-11p-10h-----------|
--12~---0---0--10h-12-------------12p-10p-0-|


   E.   E.  E   S   S  S   S   S   S   S  S  
--------------------------------------------|
--------------------------------------------|
--------------------------------------------|
--------------------------------------------|
----------------------10h-11p-10h-----------|
--12~---0---0--10h-12-------------12p-10p-0-|


   E.   E.  E   S   S  S   S   S   S   S  S  
--------------------------------------------|
--------------------------------------------|
--------------------------------------------|
--------------------------------------------|
----------------------13h-15p-13h-----------|
--15~---0---0--14h-15-------------15p-14p-0-|


   E.   E.  E   S   S  S   S   S   S   S  S  
--------------------------------------------|
--------------------------------------------|
--------------------------------------------|
--------------------------------------------|
----------------------13h-15p-13h-----------|
--15~---0---0--14h-15-------------15p-14p-0-|


   E.   E.  E   S   S  S   S   S   S   S  S  
--------------------------------------------|
--------------------------------------------|
--------------------------------------------|
--------------------------------------------|
----------------------10h-11p-10h-----------|
--12~---0---0--10h-12-------------12p-10p-0-|


   E.   E.  E   S   S  S   S   S   S   S  S  
--------------------------------------------|
--------------------------------------------|
--------------------------------------------|
--------------------------------------------|
----------------------10h-11p-10h-----------|
--12~---0---0--10h-12-------------12p-10p-0-|


   E.   E.  E   S   S  S   S   S   S   S  S  
--------------------------------------------|
--------------------------------------------|
--------------------------------------------|
--------------------------------------------|
----------------------13h-15p-13h-----------|
--15~---0---0--14h-15-------------15p-14p-0-|


   E.   E.  E   S   S  S   S   S   S   S  S  
--------------------------------------------|
--------------------------------------------|
--------------------------------------------|
--------------------------------------------|
----------------------13h-15p-13h-----------|
--15~---0---0--14h-15-------------15p-14p-0-|


   E.   E.  E   S   S  S   S   S   S   S  S  
--------------------------------------------|
--------------------------------------------|
--------------------------------------------|
--------------------------------------------|
----------------------10h-11p-10h-----------|
--12~---0---0--10h-12-------------12p-10p-0-|


   E.   E.  E   S   S  S   S   S   S   S  S  
--------------------------------------------|
--------------------------------------------|
--------------------------------------------|
--------------------------------------------|
----------------------10h-11p-10h-----------|
--12~---0---0--10h-12-------------12p-10p-0-|


   E.   E.  E   S   S  S   S   S   S   S  S  
--------------------------------------------|
--------------------------------------------|
--------------------------------------------|
--------------------------------------------|
----------------------13h-15p-13h-----------|
--15~---0---0--14h-15-------------15p-14p-0-|


                                               PM  PM  PM                  
   E.   E.  E   S   S  S   S   S   S   S  S    E.  E.  E  S S S S S S S S  
--------------------------------------------|-----------------------------|
--------------------------------------------|-----------------------------|
--------------------------------------------|-------------5-3-1-0---------|
--------------------------------------------|---------------------8-6-5-3-|
----------------------13h-15p-13h-----------|-----------------------------|
--15~---0---0--14h-15-------------15p-14p-0-|--0---0---0------------------|


  PM  PM  PM                                                              
  E.  E.  E   S  S S S  S  S S S     S S S S  S S  S S S S  S S  S S S S  
---------------------------------|--15-8-6-8-15-8-15-8-6-8-15-8-15-8-6-8-|
---------------------------------|---------------------------------------|
---------------------------------|---------------------------------------|
-------------11-10-8-0-11-10-8-0-|---------------------------------------|
---------------------------------|---------------------------------------|
--0---0---0----------------------|---------------------------------------|


   S S S S  S S  S S S S  S S  S S S S  
--16-8-6-8-16-8-16-8-6-8-16-8-16-8-6-8-|
---------------------------------------|
---------------------------------------|
---------------------------------------|
---------------------------------------|
---------------------------------------|


   S S  S S  S S  S S  S S  S S  S S  S S  
--18-8-10-8-18-8-18-8-10-8-18-8-18-8-10-8-|
------------------------------------------|
------------------------------------------|
------------------------------------------|
------------------------------------------|
------------------------------------------|


   S S  S S  S S  S S  S S  S S  S S  S S  
--20-8-10-8-20-8-20-8-10-8-20-8-20-8-10-8-|
------------------------------------------|
------------------------------------------|
------------------------------------------|
------------------------------------------|
------------------------------------------|


   S S S S  S S  S S S S  S S  S S S S     S S S S  S S  S S S S  S S  S S S S  
--15-8-6-8-15-8-15-8-6-8-15-8-15-8-6-8-|--16-8-6-8-16-8-16-8-6-8-16-8-16-8-6-8-|
---------------------------------------|---------------------------------------|
---------------------------------------|---------------------------------------|
---------------------------------------|---------------------------------------|
---------------------------------------|---------------------------------------|
---------------------------------------|---------------------------------------|


   S S  S S  S S  S S  S S  S S  S S  S S  
--18-8-10-8-18-8-18-8-10-8-18-8-18-8-10-8-|
------------------------------------------|
------------------------------------------|
------------------------------------------|
------------------------------------------|
------------------------------------------|


   S S  S S  S S  S S  S S  S S  S S  S S  
--20-8-10-8-20-8-20-8-10-8-20-8-20-8-10-8-|
------------------------------------------|
------------------------------------------|
------------------------------------------|
------------------------------------------|
------------------------------------------|


   S S S S  S S  S S S S  S S  S S S S     S S S S  S S  S S S S  S S  S S S S  
--15-8-6-8-15-8-15-8-6-8-15-8-15-8-6-8-|--16-8-6-8-16-8-16-8-6-8-16-8-16-8-6-8-|
---------------------------------------|---------------------------------------|
---------------------------------------|---------------------------------------|
---------------------------------------|---------------------------------------|
---------------------------------------|---------------------------------------|
---------------------------------------|---------------------------------------|


   S S  S S  S S  S S  S S  S S  S S  S S  
--18-8-10-8-18-8-18-8-10-8-18-8-18-8-10-8-|
------------------------------------------|
------------------------------------------|
------------------------------------------|
------------------------------------------|
------------------------------------------|


   S S  S S  S S  S S  S S  S S  S S  S S  
--20-8-10-8-20-8-20-8-10-8-20-8-20-8-10-8-|
------------------------------------------|
------------------------------------------|
------------------------------------------|
------------------------------------------|
------------------------------------------|


  PM PM PM PM PM PM PM PM PM PM PM PM PM PM PM PM PM  
  S  S  S  S  S  S  S  S  S  S  S  S  S  S  S  T  T   
-----------------------------------------------------|
-----------------------------------------------------|
-----------------------------------------------------|
-----------------------------------------------------|
-----------------------------------------------------|
--0--0--0--0--0--0--0--0--0--0--0--0--0--0--0--0--0--|


  PM PM PM PM PM PM PM PM                      
  S  S  S  S  S  S  S  S  S  S  S S S  S  S S  
----------------------------------------------|
----------------------------------------------|
----------------------------------------------|
----------------------------------------------|
----------------------------------------------|
--0--0--0--0--0--0--0--0--7h-8p-7-0-7h-8p-7-0-|


  PM PM PM PM PM PM PM PM PM PM PM PM PM PM PM PM PM  
  S  S  S  S  S  S  S  S  S  S  S  S  S  S  S  T  T   
-----------------------------------------------------|
-----------------------------------------------------|
-----------------------------------------------------|
-----------------------------------------------------|
-----------------------------------------------------|
--0--0--0--0--0--0--0--0--0--0--0--0--0--0--0--0--0--|


  PM PM PM PM PM PM PM PM                                                   
  S  S  S  S  S  S  S  S   E.  E.  E  E.  E.  E                             
-------------------------------------------------|-------------------|-----|
-------------------------------------------------|-------------------|-----|
-------------------------------------------------|-------------------|-----|
-------------------------------------------------|-------------------|-----|
--------------------------10---8---6--8---6---5--|-------------------|-----|
--0--0--0--0--0--0--0--0-------------------------|-------------------|-----|


   E.   E.  E   S   S  S   S   S   S   S  S  
--------------------------------------------|
--------------------------------------------|
--------------------------------------------|
--------------------------------------------|
----------------------10h-11p-10h-----------|
--12~---0---0--10h-12-------------12p-10p-0-|


   E.   E.  E   S   S  S   S   S   S   S  S    E.  E.  E  E.  E.  E   
--------------------------------------------|------------------------|
--------------------------------------------|------------------------|
--------------------------------------------|------------------------|
--------------------------------------------|------------------------|
----------------------10h-11p-10h-----------|--6---6---6--6---6---6--|
--12~---0---0--10h-12-------------12p-10p-0-|--8---8---8--8---8---8--|


   E.   E.   E   E.   E.   E      E.   E.  E   S   S  S   S   S   S   S  S  
------------------------------|--------------------------------------------|
------------------------------|--------------------------------------------|
------------------------------|--------------------------------------------|
------------------------------|--------------------------------------------|
---8----8----8---8----8----8--|----------------------13h-15p-13h-----------|
--10---10---10--10---10---10--|--15~---0---0--14h-15-------------15p-14p-0-|


   E.   E.  E   S   S  S   S   S   S   S  S    E.   E.   E  E.   E.   E   
--------------------------------------------|----------------------------|
--------------------------------------------|----------------------------|
--------------------------------------------|------------L--L---------L--|
--------------------------------------------|------10-------L---10-------|
----------------------13h-15p-13h-----------|-----------11-------L---11--|
--15~---0---0--14h-15-------------15p-14p-0-|--8------------8------------|


   E.   E.   E   E.   E.   E      E.   E.  E   S   S  S   S   S   S   S  S  
------------------------------|--------------------------------------------|
------------------------------|--------------------------------------------|
-----------------L---------L--|--------------------------------------------|
-------12--------L---12----L--|--------------------------------------------|
------------13--------L---13--|----------------------10h-11p-10h-----------|
--10------------10------------|--12~---0---0--10h-12-------------12p-10p-0-|


   E.   E.  E   S   S  S   S   S   S   S  S    E.   E.   E  E.   E.   E   
--------------------------------------------|----------------------------|
--------------------------------------------|----------------------------|
--------------------------------------------|------------L--L---------L--|
--------------------------------------------|------10-------L---10-------|
----------------------10h-11p-10h-----------|-----------11-------L---11--|
--12~---0---0--10h-12-------------12p-10p-0-|--8------------8------------|


   E.   E.   E   E.   E.   E      E.   E.  E   S   S  S   S   S   S   S  S  
------------------------------|--------------------------------------------|
------------------------------|--------------------------------------------|
-----------------L---------L--|--------------------------------------------|
-------12--------L---12----L--|--------------------------------------------|
------------13--------L---13--|----------------------13h-15p-13h-----------|
--10------------10------------|--15~---0---0--14h-15-------------15p-14p-0-|


                                   PM PM      PM PM            
   E.   E.  E  S S S S  S S S S    S  S  Q    S  S  H          
--------------------------------|----------------------------||
--------------------------------|----------------------------||
--------------------------------|----------------------------||
---------------6-5-3----5-3-----|----------------------------||
---------------------6h-----6-5-|--3--3-------3--3-----------||
--15~---0---0-------------------|--0--0-------0--0-----------||




Duration Legend
---------------
W - whole
H - half
Q - quarter
E - 8th
S - 16th
T - 32nd
X - 64th
. - note dotted
|-n-|  - n-tuplets


Tablature Legend
----------------
L - tied note
x - dead note
g - grace note
(n) - ghost note
> - accentuded note
NH - natural harmonic
AH - artificial harmonic
TH - tapped harmonic
SH - semi harmonic
PH - pitch harmonic
h - hammer on
p - pull off
b - bend
br - bendRelease
pb - preBend
pbr - preBendRelease
brb - bendReleaseBend
\n/ - tremolo bar dip
\n - tremolo bar dive
-/n - tremolo bar Release up
/n\ - tremolo bar inverted dip
/n - tremolo bar return
-\n - tremolo bar Release down
S - shift slide
s - legato slide
/ -  slide into from below or out of upwards
\ -  slide into from above or out of downwards
~ - vibrato
W - wide vibrato
tr - trill
TP - tremolo picking
T - tapping
S - slap
P - pop
< - fade in
^ - brush up
v - brush down
comments
We did not receive enough feedback on this tab! Please rate:
1 2 3 4 5
I want to post or [tab]
guest
You may want to rate the tab now too:
select rating
Please do not post tabs as comments. Select "correction" instead!