Oops, an error
Loading. Please wait.

Mattrach - New Canon Rock Tab

84,307 views 91 this week
14 commentsread comments
1 2 3 4 5
excellent!
x 16
add to favorites launch autoscroll
font size
0
reset
Autoscroll
+/-
esc
set tempo
stop
Difficulty
intermediate
WARNING: You are trying to view
                                    content from Ultimate-Guitar.com
                                    in an unauthorized application,
                                    which is prohibited.

                                    Please use an official Ultimate
                                    Guitar Tabs application for iPhone,
                                    iPad or Android to access legitimate
                                    chords, guitar, bass, and drum tabs
                                    from Ultimate-Guitar.com database.

                                    Type "ultimate guitar tabs" in Apple
                                    App Store's or Android Market's
                                    search to find the application.
                  The New Canon Rock                    


     W                   W                 
E||-------------------|-------------------|
B||-------------------|-------------------|
G||-------------------|-------------------|
D||-------------------|-------------------|
A||-------------------|-------------------|
E||-------------------|-------------------|


  W                   W                 
-------------------|-------------------|
-------------------|-------------------|
-------------------|-------------------|
-------------------|-------------------|
-------------------|-------------------|
-------------------|-------------------|


  W                   W                 
-------------------|-------------------|
-------------------|-------------------|
-------------------|-------------------|
-------------------|-------------------|
-------------------|-------------------|
-------------------|-------------------|


                               \1/       
  W                   H        H         
-------------------|--------------------|
-------------------|-----------9--------|
-------------------|--------------------|
-------------------|--------------------|
-------------------|--------------------|
-------------------|--------------------|


                                             \1/   
   H          H             H          Q     Q     
------------------------|-------------------------|
--19~--------17~--------|--15~--------14~----5----|
------------------------|-------------------------|
------------------------|-------------------------|
------------------------|-------------------------|
------------------------|-------------------------|


   H          H             H          Q      E   E   
------------------------|----------------------------|
--12~--------10~--------|--12~--------14~----15--17--|
------------------------|----------------------------|
------------------------|----------------------------|
------------------------|----------------------------|
------------------------|----------------------------|


                         |---3---|      
   Q      Q      E   E   S   S   S  E   
--------------------15--14h-15p-14-----|
--17b-----L~----17-----------------17--|
---------------------------------------|
---------------------------------------|
---------------------------------------|
---------------------------------------|


   Q.       S   S  S  S  E   Q      
----------------------------17b----|
--15~------17p-15-14-15------------|
------------------------14---------|
-----------------------------------|
-----------------------------------|
-----------------------------------|


              |--3--|  |--3--|               
   E   S   S  S  S  S  S  S  S  Q.       E   
---L--17b-15-14-15-14-----------------------|
----------------------17-19-17-15~----------|
----------------------------------------14--|
--------------------------------------------|
--------------------------------------------|
--------------------------------------------|


   E   E   E    E      H         
--------------------------------|
--15--17--17b--15--15g17--------|
--------------------------------|
--------------------------------|
--------------------------------|
--------------------------------|


     PM PM       PM    PM  
  E  E  E  E  E  E  E  E   
--------------------------|
--3--------7--8-----7-----|
--2--------7--7-----7-----|
--0--0--0--------0-----0--|
--------------------------|
--------------------------|


     PM PM      PM PM   W     
  E  E  E    E  E  E    Q     
-----------------------------|
-----------------------------|
--6--------<>7--------<>6----|
--7--7--7-------7--7---------|
-----------------------------|
-----------------------------|


     PM PM                      PM PM    PM PM    PM  
  E  E  E  E  E  E  E  E     E  E  E  E  E  E  E  E   
--------------------------|--------------------------|
-----------3--5--3--2--0--|--------------------------|
--4-----------------------|--------------------------|
--4-----------------------|--4--------2--------4-----|
--2--2--2-----------------|--4--------2--------4-----|
--------------------------|--2--2--2--0--0--0--2--2--|


     PM PM                           
  E  E  E    E    E    E    E    E   
------------------------------------|
------------------------------------|
-----------<>7--<>5--<>7--<>5--<>7--|
--5---------------------------------|
--5---------------------------------|
--3--3--3---------------------------|


        PM PM                PM PM PM PM PM PM         
  E  E  E  E  E  E  E  E     E  E  E  E  E  E   E  E   
--------------------------|---------------------------|
--------------8--7--5-----|---------------------------|
--7--------------------7--|--7--7--7--6--7--9--11--9--|
--7-----------------------|---------------------------|
--5-----5--5--------------|---------------------------|
--------------------------|---------------------------|


                     W         
  Q      S  S  S  S  H         
------------------------------|
------------------------------|
--9s----14-14-14-14-14--------|
------------------------------|
------------------------------|
------------------------------|


     PM PM       PM    PM  
  E  E  E  E  E  E  E  E   
--------------------------|
--3--------7--8-----7-----|
--2--------7--7-----7-----|
--0--0--0--------0-----0--|
--------------------------|
--------------------------|


     PM PM      PM PM   W     
  E  E  E    E  E  E    Q     
-----------------------------|
-----------------------------|
--6--------<>7--------<>6----|
--7--7--7-------7--7---------|
-----------------------------|
-----------------------------|


     PM PM                      PM PM    PM PM    PM  
  E  E  E  E  E  E  E  E     E  E  E  E  E  E  E  E   
--------------------------|--------------------------|
-----------3--5--3--2--0--|--------------------------|
--4-----------------------|--------------------------|
--4-----------------------|--4--------2--------4-----|
--2--2--2-----------------|--4--------2--------4-----|
--------------------------|--2--2--2--0--0--0--2--2--|


     PM PM                           
  E  E  E    E    E    E    E    E   
------------------------------------|
------------------------------------|
-----------<>7--<>5--<>7--<>5--<>7--|
--5---------------------------------|
--5---------------------------------|
--3--3--3---------------------------|


        PM PM                PM PM PM PM PM PM         
  E  E  E  E  E  E  E  E     E  E  E  E  E  E   E  E   
--------------------------|---------------------------|
--------------8--7--5-----|---------------------------|
--7--------------------7--|--7--7--7--6--7--9--11--9--|
--7-----------------------|---------------------------|
--5-----5--5--------------|---------------------------|
--------------------------|---------------------------|


  H.            Q     
---------------------|
---------------------|
--9~-----------------|
---------------------|
---------------------|
---------------------|


   PM  PM      PM  PM      PM  PM  
   E   E   E   E   E   E   E   E   
----------------------------------|
----------15----------17----------|
--14--14------14--14------14--14--|
----------------------------------|
----------------------------------|
----------------------------------|


       PM      PM      PM      PM  
   E   E   E   E   E   E   E   E   
----------------------------------|
--19------17------15------14------|
------14------14------14------14--|
----------------------------------|
----------------------------------|
----------------------------------|


                           T      T               T   
   |---3---|   |---3---|                              
   E   E   E   E   E   E   S   S  S   S  S  S  S  S   
--------------12--14--15--17p-15-17p-15-14-12-14-----|
--12--14--15-------------------------------------17h-|
-----------------------------------------------------|
-----------------------------------------------------|
-----------------------------------------------------|
-----------------------------------------------------|


                     T         W            
   S  S  S  S  S  S  S   S  S  Q     S S S  
-------------------------------------------|
--15-14-15-14-12---------------------------|
-----------------14-16p-14-12-11-----L-x-x-|
-------------------------------------------|
-------------------------------------------|
-------------------------------------------|


                                          W            
  E   E  E   E  E   E  E   E     E  E  E  Q.     Q     
------------------------------|-----------------------|
------------------------------|-----------------------|
--7S--6--6S--7--7S--9--9S--7--|--7--6-----------------|
------------------------------|--------7--7-----------|
------------------------------|-----------------------|
------------------------------|-----------------------|


   |---3---|   |---3---|   |---3---|   |---3---|   
   E   E   E   E   E   E   E   E   E   E   E   E   
--------------------------------------------------|
--------------------------------------14--15--17--|
--------------------------12--14--16--------------|
--------------12--14--16--------------------------|
--12--14--16--------------------------------------|
--------------------------------------------------|


   \1/                                            
   H         H             H         Q.       E   
-----------------------|-------------------------|
--17---------L~--------|--15--------17b------15--|
-----------------------|-------------------------|
-----------------------|-------------------------|
-----------------------|-------------------------|
-----------------------|-------------------------|


   H         E   E   E   E   
----------------------------|
--14--------14--15----------|
--------------------16--14--|
----------------------------|
----------------------------|
----------------------------|


   H         S  S  S  S  S  S  S  S  
---------------------------12-14-15-|
------------------12-14-15----------|
--16--------12-14-------------------|
------------------------------------|
------------------------------------|
------------------------------------|


   T                     W            
   S   S  S  S  S  S  S  S  H         
--17p-15-14-12-----------------------|
---------------15-14-12--------------|
------------------------14-14--------|
-------------------------------------|
-------------------------------------|
-------------------------------------|


                                            W         
  Q      Q     Q      Q        Q      Q     H         
----------------------------|------------------------|
----------------------------|------------------------|
--2s----14s----2s----14s----|--2s----14----14--------|
----------------------------|------------------------|
----------------------------|------------------------|
----------------------------|------------------------|


   E   S  S  E   S  S  E   S  S  E   S  S  
-------x--x------x--x-17---x--x------x--x-|
-------x--x-17---x--x------x--x-17---x--x-|
--14---x--x------x--x------x--x------x--x-|
------------------------------------------|
------------------------------------------|
------------------------------------------|


                       W          
   E   S  S  E   S  S  Q    Q     
-------x--x------x--x-17---------|
-------x--x-17---x--x------------|
--14---x--x------x--x------------|
---------------------------------|
---------------------------------|
---------------------------------|


   H         Q.       E      H         E   E   E   E   
-------------------------|----------------------------|
--15--------17b------15--|--14--------14--15--14------|
-------------------------|------------------------14--|
-------------------------|----------------------------|
-------------------------|----------------------------|
-------------------------|----------------------------|


   W                    H.            E   E   
--------------------|------------------------|
--------------------|------------------------|
--16----------------|--11------------11--12--|
--------------------|------------------------|
--------------------|------------------------|
--------------------|------------------------|


   E  E  E      E  E  E   E  E   
--------------------------------|
--------------------------------|
--14--------11g12--------11-----|
--------------------------------|
--------------------------------|
--------------------------------|


             PM  PM  PM  PM  
   H         E   E   E   E   
----------------------------|
----------------------------|
----------------------------|
--12------------12--14--16--|
------------12--------------|
----------------------------|


   PM  PM  PM                      
   E   E   E   E   E   E   E   E   
--------------------------14--15--|
--------------14--15--17----------|
--12--14--16----------------------|
----------------------------------|
----------------------------------|
----------------------------------|


   Q     E   H        E      H         E   Q     E   
--14---------------------|----------------17--------|
--------15--17-----------|--15---------L--------15--|
-------------------------|--------------------------|
-------------------------|--------------------------|
-------------------------|--------------------------|
-------------------------|--------------------------|


   H         Q     Q        H.             Q     
------------17----------|--17b------------17----|
--14--------------14----|-----------------------|
------------------------|-----------------------|
------------------------|-----------------------|
------------------------|-----------------------|
------------------------|-----------------------|


   H.            Q        Q     Q     Q     Q     
--14------------14----|--15----14----------15----|
----------------------|--------------17----------|
----------------------|--------------------------|
----------------------|--------------------------|
----------------------|--------------------------|
----------------------|--------------------------|


   E   E   E   E   H         
--14------------------------|
------17--17--15--15--------|
----------------------------|
----------------------------|
----------------------------|
----------------------------|


   S  S  S  S  S  S  S  S  S  S  S  S  S  S  S  S  
--------------------------------------------------|
--14-15-17-15-14-15-14-12-14-12-------------------|
--------------------------------14-12-11----------|
-----------------------------------------14-12-11-|
--------------------------------------------------|
--------------------------------------------------|


                   \1/          \1/               
  S  S S S S S S S H            W                 
----------------------------|--18----------------|
----------------------------|--------------------|
----------------------------|--------------------|
--9-11-9-7-5-7-5-4----------|--------------------|
-------------------5--------|--------------------|
----------------------------|--------------------|


  W                                                  
  W                    Q      E   E   Q      E   E   
-------------------|--17~----14--15--17~----14--15--|
-------------------|--------------------------------|
-------------------|--------------------------------|
-------------------|--------------------------------|
--L----------------|--------------------------------|
-------------------|--------------------------------|


   E   E   E   E   E   E   E   E   
--17----------------------14--15--|
--------------14--15--17----------|
------14--16----------------------|
----------------------------------|
----------------------------------|
----------------------------------|


   Q      E   E   Q      E   E   
--14~------------14~------------|
---------15--17-----------------|
--------------------------------|
------------------------16--17--|
--------------------------------|
--------------------------------|


   E   E   E   E   E   E   E   E   
----------------------------------|
----------------------15--14--15--|
--14--16--14------14--------------|
--------------17------------------|
----------------------------------|
----------------------------------|


   Q     E   E   Q     E   E   
------------------------------|
--------15--14----------------|
--16------------16----14------|
--------------------------17--|
------------------------------|
------------------------------|


   E   E   E   E   E   E   E   E   
----------------------------------|
--------------------------14--15--|
--14--------------14--16----------|
------17--16--17------------------|
----------------------------------|
----------------------------------|


   Q      E   E   Q      E   E   
--------------------------------|
------------------------14--15--|
---------16--14--16~------------|
--17~---------------------------|
--------------------------------|
--------------------------------|


   E   E   E   E   E   E   E   E   
----------------------14--15--17--|
----------14--15--17--------------|
--14--16--------------------------|
----------------------------------|
----------------------------------|
----------------------------------|


   Q      E   E   Q      E   E   
--14~------------14~------------|
---------15--17---------17--15--|
--------------------------------|
--------------------------------|
--------------------------------|
--------------------------------|


   E   E   E   E   Q      E   E   
---------------------------------|
--17--14--15--17--17b----15--14--|
---------------------------------|
---------------------------------|
---------------------------------|
---------------------------------|


   Q      E   E   Q      E   E   
--------------------------------|
--15~--------14--15~------------|
---------16---------------------|
------------------------16--17--|
--------------------------------|
--------------------------------|


   E   E   E   E   E   E   E   E   
----------------------------------|
----------------------15--14--15--|
--14--16--14------14--------------|
--------------17------------------|
----------------------------------|
----------------------------------|


   Q      E   E   Q      E   E   
--------------------------------|
---------15--14-----------------|
--16~------------16~----14------|
----------------------------17--|
--------------------------------|
--------------------------------|


   E   E   E   E   E   E   E   E   
----------------------------------|
--------------------------14--15--|
--14--------------14--16----------|
------17--16--17------------------|
----------------------------------|
----------------------------------|


   Q      E   E   Q      E   E   
--------------------------------|
---------15--14--15~----14------|
--16~-----------------------16--|
--------------------------------|
--------------------------------|
--------------------------------|


                           W         
   |---3---|   |---3---|             
   E   E   E   E   E   E   H         
------------------------------------|
--14--15--14--12--14--12--10--------|
------------------------------------|
------------------------------------|
------------------------------------|
------------------------------------|


     PM PM       PM    PM  
  E  E  E  E  E  E  E  E   
--------------------------|
--3--------7--8-----7-----|
--2--------7--7-----7-----|
--0--0--0--------0-----0--|
--------------------------|
--------------------------|


     PM PM      PM PM   W     
  E  E  E    E  E  E    Q     
-----------------------------|
-----------------------------|
--6--------<>7--------<>6----|
--7--7--7-------7--7---------|
-----------------------------|
-----------------------------|


     PM PM                      PM PM    PM PM    PM  
  E  E  E  E  E  E  E  E     E  E  E  E  E  E  E  E   
--------------------------|--------------------------|
-----------3--5--3--2--0--|--------------------------|
--4-----------------------|--------------------------|
--4-----------------------|--4--------2--------4-----|
--2--2--2-----------------|--4--------2--------4-----|
--------------------------|--2--2--2--0--0--0--2--2--|


     PM PM                           
  E  E  E    E    E    E    E    E   
------------------------------------|
------------------------------------|
-----------<>7--<>5--<>7--<>5--<>7--|
--5---------------------------------|
--5---------------------------------|
--3--3--3---------------------------|


        PM PM              
  E  E  E  E  E  E  E  E   
--------------------------|
--------------8--7--5-----|
--7--------------------7--|
--7-----------------------|
--5-----5--5--------------|
--------------------------|


  PM PM PM PM PM  PM                           
        |--3--|                                
  E  E  E  E  E   S  S  S   S   S   S   S   S  
----------------------------------------------|
----------------------------------------------|
--7--7--7--6--6s--7s-8s-9s-10s-11s-12s-13s-14-|
----------------------------------------------|
----------------------------------------------|
----------------------------------------------|


   H.            Q     
----------------------|
----------------------|
--14~-----------------|
----------------------|
----------------------|
----------------------|


   PM  PM      PM  PM      PM  PM  
   E   E   E   E   E   E   E   E   
----------------------------------|
----------15----------17----------|
--14--14------14--14------14--14--|
----------------------------------|
----------------------------------|
----------------------------------|


       PM      PM      PM      PM  
   E   E   E   E   E   E   E   E   
----------------------------------|
--19------17------15------14------|
------14------14------14------14--|
----------------------------------|
----------------------------------|
----------------------------------|


                     |----3---|                    
   S  S  S  S  S  S  E    E   E   S  E    S  S  S  
-----------12-14-15-17/--12--14--15-17/--15-14-12-|
--12-14-15----------------------------------------|
--------------------------------------------------|
--------------------------------------------------|
--------------------------------------------------|
--------------------------------------------------|


                     T                 
   S  S  S  S  S  S  S   S  H          
--------------------------------------|
--15-14-15-14-12----------------------|
-----------------14-16p-14-11~--------|
--------------------------------------|
--------------------------------------|
--------------------------------------|


  \1/  \1/  W    W                \1/          
  Q    Q    Q    Q       E  Q     H        E   
----------------------|----------13-----------|
----------------------|-----------------------|
--7----9----7----6----|--7--------------------|
----------------------|-----7-----------------|
----------------------|-----------------------|
----------------------|-----------------------|


                                       |--6--|  |--6--| 
   S  S  S  S  S  S  S  S  S  S  S  S  S  S  S  S  S  S 
-----------------------------------------------12-14-15-
-----------------------------------------14-15----------
--------------------------------12-14-16----------------
--------------------11-12-14-16-------------------------
-----------10-12-14-------------------------------------
--10-12-14----------------------------------------------


   H.             Q     
--17~------------14----|
-----------------------|
-----------------------|
-----------------------|
-----------------------|
-----------------------|


   T           T     T           T     T           
   S  S  S  S  S  S  S  S  S  S  S  S  S  S  S  S  
--17-14-10-14-17-14-17-14-10-14-17-14-17-14-10-14-|
--------------------------------------------------|
--------------------------------------------------|
--------------------------------------------------|
--------------------------------------------------|
--------------------------------------------------|


   T          T     T          T     T          
   S  S S  S  S  S  S  S S  S  S  S  S  S S  S  
--17-12-9-12-17-12-17-12-9-12-17-12-17-12-9-12-|
-----------------------------------------------|
-----------------------------------------------|
-----------------------------------------------|
-----------------------------------------------|
-----------------------------------------------|


   T          T     T          T     T          
   S  S S  S  S  S  S  S S  S  S  S  S  S S  S  
--14-10-7-10-14-10-14-10-7-10-14-10-14-10-7-10-|
-----------------------------------------------|
-----------------------------------------------|
-----------------------------------------------|
-----------------------------------------------|
-----------------------------------------------|


   T        T    T        T    T        
   S S S S  S S  S S S S  S S  S S S S  
--14-9-5-9-14-9-14-9-5-9-14-9-14-9-5-9-|
---------------------------------------|
---------------------------------------|
---------------------------------------|
---------------------------------------|
---------------------------------------|


   T          T     T          T     T          
   S  S S  S  S  S  S  S S  S  S  S  S  S S  S  
--15-10-5-10-15-10-15-10-5-10-15-10-15-10-5-10-|
-----------------------------------------------|
-----------------------------------------------|
-----------------------------------------------|
-----------------------------------------------|
-----------------------------------------------|


   T          T          T          T          
   |---6--|   |---6--|   |---6--|   |---6--|   
   E   E  E   E   E  E   E   E  E   E   E  E   
--14--10--5--15--10--5--17--10--5--19--10--5--|
----------------------------------------------|
----------------------------------------------|
----------------------------------------------|
----------------------------------------------|
----------------------------------------------|


   S  S  S  S  S  S  S  S  S  S  S  S  S  S  S  S  
--12-14-17-12-14-17-12-14-17-12-14-17-15-14-12----|
-----------------------------------------------15-|
--------------------------------------------------|
--------------------------------------------------|
--------------------------------------------------|
--------------------------------------------------|


               W                                       
   E   E   E   Q    Q    E      H         Q.       E   
----------------------------|-------------------------|
--14--12--------------------|--15--------17b------15--|
----------14--14------------|-------------------------|
----------------------------|-------------------------|
----------------------------|-------------------------|
----------------------------|-------------------------|


   H         E   E   E   E      W                 
----------------------------|--------------------|
--14--------14--15--14------|--------------------|
------------------------14--|--16----------------|
----------------------------|--------------------|
----------------------------|--------------------|
----------------------------|--------------------|


   H.            E   E   
------------------------|
------------------------|
--11------------11--12--|
------------------------|
------------------------|
------------------------|


   E  E  E      E  E  E   E  E   
--------------------------------|
--------------------------------|
--14--------11g12--------11-----|
--------------------------------|
--------------------------------|
--------------------------------|


                 PM  PM  
   H.            E   E   
------------------------|
------------------------|
------------------------|
--12----------------12--|
----------------12------|
------------------------|


   PM  PM  PM  PM  PM                    
                       |---3---|         
   E   E   E   E   E   E   E   E   S  S  
----------------------------------14-15-|
----------------------14--15--17--------|
----------12--14--16--------------------|
--14--16--------------------------------|
----------------------------------------|
----------------------------------------|


             W                                      
   Q     E   H        E      H.             E   E   
--14---------------------|-----------------17------|
--------15--17-----------|--15~----------------15--|
-------------------------|-------------------------|
-------------------------|-------------------------|
-------------------------|-------------------------|
-------------------------|-------------------------|


   H          Q     Q        H.             Q     
-------------17----------|--17b------------17----|
--14~--------------14----|-----------------------|
-------------------------|-----------------------|
-------------------------|-----------------------|
-------------------------|-----------------------|
-------------------------|-----------------------|


   H.            Q        Q     Q     Q     Q     
--14------------14----|--15----14----------15----|
----------------------|--------------17----------|
----------------------|--------------------------|
----------------------|--------------------------|
----------------------|--------------------------|
----------------------|--------------------------|


   E   E   E   E   H         
--14------------------------|
------17--17--15--15--------|
----------------------------|
----------------------------|
----------------------------|
----------------------------|


   |---3---|                           
   E   E   E   E   E   E   E   E   E   
--------------------------------------|
--14--15--17--15--14--15--14----------|
------------------------------16--14--|
--------------------------------------|
--------------------------------------|
--------------------------------------|


   E   E   E   E   E   E   E   E   
----------------------14--15--17--|
----------14--15--17--------------|
--14--16--------------------------|
----------------------------------|
----------------------------------|
----------------------------------|


   Q      E   E   Q      E   E   
--14~------------14~------------|
---------15--17---------17--15--|
--------------------------------|
--------------------------------|
--------------------------------|
--------------------------------|


   E   E   E   E   Q      E   E   
---------------------------------|
--17--14--15--17--17b----15--14--|
---------------------------------|
---------------------------------|
---------------------------------|
---------------------------------|


   Q      E   E   Q      E   E   
--------------------------------|
--15~--------14--15~------------|
---------16---------------------|
------------------------16--17--|
--------------------------------|
--------------------------------|


   E   E   E   E   E   E   E   E   
----------------------------------|
----------------------15--14--15--|
--14--16--14------14--------------|
--------------17------------------|
----------------------------------|
----------------------------------|


   Q      E   E   Q      E   E   
--------------------------------|
---------15--14-----------------|
--16~------------16~----14------|
----------------------------17--|
--------------------------------|
--------------------------------|


   E   E   E   E   E   E   E   E   
----------------------------------|
--------------------------14--15--|
--14--------------14--16----------|
------17--16--17------------------|
----------------------------------|
----------------------------------|


   Q      E   E   Q      E   E   
--------------------------------|
---------15--14--15~----14------|
--16~-----------------------16--|
--------------------------------|
--------------------------------|
--------------------------------|


   E   E   E   E   E   E   E   E   
----------------------14--15--17--|
----------14--15--17--------------|
--14--16--------------------------|
----------------------------------|
----------------------------------|
----------------------------------|


   Q      E   E   Q      E   E   
--14~------------14~------------|
---------15--17---------17--15--|
--------------------------------|
--------------------------------|
--------------------------------|
--------------------------------|


   E   E   E   E   Q      E   E   
---------------------------------|
--17--14--15--17--17b----15--14--|
---------------------------------|
---------------------------------|
---------------------------------|
---------------------------------|


   Q      E   E   Q      E   E   
--------------------------------|
--15~--------14--15~------------|
---------16---------------------|
------------------------16--17--|
--------------------------------|
--------------------------------|


   E   E   E   E   E   E   E   E   
----------------------------------|
----------------------15--14--15--|
--14--16--14------14--------------|
--------------17------------------|
----------------------------------|
----------------------------------|


   Q      E   E   Q      E   E   
--------------------------------|
---------15--14-----------------|
--16~------------16~----14------|
----------------------------17--|
--------------------------------|
--------------------------------|


   E   E   E   E   E   E   E   E   
----------------------------------|
--------------------------14--15--|
--14--------------14--16----------|
------17--16--17------------------|
----------------------------------|
----------------------------------|


   Q      E   E   Q      E   E   
--------------------------------|
---------15--14--15~----14------|
--16~-----------------------16--|
--------------------------------|
--------------------------------|
--------------------------------|


                   |---3---|           
   E   E   E   E   E   E   E   E   E   
--------------------------------------|
--14--15--17--15--14--15--14------14--|
------------------------------16------|
--------------------------------------|
--------------------------------------|
--------------------------------------|


                                                 \1/   
      W                 H           H.           Q     
---------------------------------|--------------------|
--14g15~-------------------------|--------------------|
---------------------------------|--7------------6----|
---------------------------------|--------------------|
---------------------------------|--------------------|
---------------------------------|--------------------|


                   \1/                          
  Q    Q    E  S S Q       Q    H         Q     
------------------------|----------------------|
------------------------|----------------------|
--L----7----6--7-6------|----------------------|
-------------------7----|--L----9~-------------|
------------------------|----------------------|
------------------------|----------------------|


    Q     Q       Q      Q     
------------------------------|
--\12----14----<>14b----14----|
------------------------------|
------------------------------|
------------------------------|
------------------------------|


  E   Q     E      E.   E.   S  S  
----------------------------------|
----------------------------------|
-----11----12--12g14---12---11-12-|
----------------------------------|
----------------------------------|
----------------------------------|


   H.            Q       Q    Q     Q     Q     
----------------------|------------------------|
----------------------|------------------------|
--11~------------7----|--7----9----11----12----|
----------------------|------------------------|
----------------------|------------------------|
----------------------|------------------------|


                        \1/  \1/  \1/  \1/   
   W                    Q    Q    Q    Q     
---------------------|----------------------|
---------------------|----------------------|
--14~----------------|--7----6----7----9----|
---------------------|----------------------|
---------------------|----------------------|
---------------------|----------------------|


  \1/  \1/  \1/  \1/      W                 
  Q    Q    Q    Q        W                 
----------------------|--------------------|
----------------------|--------------------|
--7----6----7----9----|--11----------------|
----------------------|--------------------|
----------------------|--------------------|
----------------------|--------------------|


   W                                               
   H.            E   E      H.             E   E   
------------------------|-------------------------|
--------------------15--|--17b-------------L--15--|
--16------------14------|-------------------------|
------------------------|-------------------------|
------------------------|-------------------------|
------------------------|-------------------------|


   \1/          \1/     \1/ \1/ \1/ 
   E   E   E    E   E   E   E   E   
-----------------------------------|
--17--15--17b--15--17--15--17--15--|
-----------------------------------|
-----------------------------------|
-----------------------------------|
-----------------------------------|


       \1/ \1/ \1/     \1/ \1/ \1/ 
   E   E   E   E   E   E   E   E   
----------------------------------|
--17--15--17--15--17--15--17--15--|
----------------------------------|
----------------------------------|
----------------------------------|
----------------------------------|


       \1/ \1/ \1/           
   E   E   E   E  H          
----------------------------|
--17--15--17--15------------|
----------------------------|
------------------9\--------|
------------------9\--------|
------------------9\--------|


   S  S  S  S  S  S  S  S  S  S  S  S  S  S  S  S  
--14-14-12-10-14-14-12-10-14-14-12-10-14-14-12-10-|
--------------------------------------------------|
--------------------------------------------------|
--------------------------------------------------|
--------------------------------------------------|
--------------------------------------------------|


   S  S  S S  S  S  S S  S  S  S S  S  S  S S  
--12-12-10-9-12-12-10-9-12-12-10-9-12-12-10-9-|
----------------------------------------------|
----------------------------------------------|
----------------------------------------------|
----------------------------------------------|
----------------------------------------------|


   S  S S S  S  S S S  S  S S S  S  S S S  
--10-10-9-7-10-10-9-7-10-10-9-7-10-10-9-7-|
------------------------------------------|
------------------------------------------|
------------------------------------------|
------------------------------------------|
------------------------------------------|


  S S S S S S S S S S S S S S S S  
--9-9-7-5-9-9-7-5-9-9-7-5-9-9-7-5-|
----------------------------------|
----------------------------------|
----------------------------------|
----------------------------------|
----------------------------------|


  S S S S S S S S S S S S S S S S  
--7-7-5-3-7-7-5-3-9-9-7-5-9-9-7-5-|
----------------------------------|
----------------------------------|
----------------------------------|
----------------------------------|
----------------------------------|


   S  S  S S  S  S  S  S  S  S  S  S  S  S  S  S  
--12-12-10-9-14-14-12-10-15-15-14-12-14-14-15-15-|
-------------------------------------------------|
-------------------------------------------------|
-------------------------------------------------|
-------------------------------------------------|
-------------------------------------------------|


   S  S  S  S  S  S  S  S  S  S  S  S  S  S  S  S  
--14-15-19-15-17-19-15-17-19-15-17-15-14-12-------|
--------------------------------------------15-17-|
--------------------------------------------------|
--------------------------------------------------|
--------------------------------------------------|
--------------------------------------------------|


   |---3---|                    
   E   E   E   Q     H          
-------------------------------|
--15--14--12-------------------|
--------------14----14---------|
--------------------19b--------|
-------------------------------|
-------------------------------|


                              --- 
   E  E  E  E  E  E  E  E         
---------------------------|-----|
---------------------------|-----|
--14-----------------------|-----|
---------------------------|-----|
---------------------------|-----|
---------------------------|-----|


   E   E   E   E   E   E   E   E   
--17----------------------14--15--|
--------------14--15--17----------|
------14--16----------------------|
----------------------------------|
----------------------------------|
----------------------------------|


   Q     E   E   E   E   E   E   
--14------------14--15--17--19--|
--------15--17------------------|
--------------------------------|
--------------------------------|
--------------------------------|
--------------------------------|


   H.             E   S  S  
--19b-------------L--14-15-|
---------------------------|
---------------------------|
---------------------------|
---------------------------|
---------------------------|


   S  S  S  S  S  S  S  S  S  S  S  S  S  S  S  S  
--19-15-14-15-19-15-19-15-15-19-15-19-15-14-------|
--------------------------------------------15-19-|
--------------------------------------------------|
--------------------------------------------------|
--------------------------------------------------|
--------------------------------------------------|


   I REALLY DIDN'T HAVE ANY IDEA                        
   S                             S  S  S  S  S  S  S  S 
--15----------------------------19-------19----14-15-14-
-----------------------------------15-19----15----------
--------------------------------------------------------
--------------------------------------------------------
--------------------------------------------------------
--------------------------------------------------------


               SOMETHING                                
   S  S  S  S  S         S  S  S  S  S  S  S  S  S  S  S
--------------------------------------------------------
--------------------------------------------------------
--14-12-11-10-------------------------------------------
--------------14--------13-12-11------------------------
---------------------------------15-14-13-12-11---------
------------------------------------------------14-13-12


   S  S  S  S  S  S  S  S  S  S  S  S  S  S  S  S  
--------------------------------------------------|
--------------------------------------------------|
--------------------------------------------------|
-----------------------------------------14-16-17-|
--------------------------------14-15-17----------|
--10-12-14-12-14-15-17-14-15-17-------------------|


   S  S  S  S  S  S  S  S  S  S  S  S  S  S  S  S  
--------------------15-17-14-16-13-15-12-14-------|
-----------14-15-17-------------------------14-16-|
--14-16-17----------------------------------------|
--------------------------------------------------|
--------------------------------------------------|
--------------------------------------------------|


   S  S  S  S  S  S  S  S  S  S  S  S  S  S  S  S  
--------------------------------------------------|
--13-15-12-14-------------------------------------|
--------------13-15-12-14-------------------------|
--------------------------16-15-14-13-12----------|
-----------------------------------------16-15-13-|
--------------------------------------------------|


   S  S  S  S  S  S  S  S  S  S  S  S  S  S  S  S  
--------------------------------------------------|
--------------------------------------------------|
-----------------------13-15-18-16-15-------------|
-----------14-15-16-17----------------16-15-14----|
--15-16-17-------------------------------------16-|
--------------------------------------------------|


   S  S  S  S  S  S  S  S  S  S  S  S  S  S  S  S  
--------------------------------------------------|
--------------------------------------------------|
-----------------------13-15-18-16-15-------------|
-----------14-15-16-17----------------16-15-14----|
--15-16-17-------------------------------------16-|
--------------------------------------------------|


   S  S  S  S  S S S S S S S S S S S S  
---------------------------------------|
---------------------------------------|
---------------------------------------|
---------------------------------------|
--14-12--------------------------------|
--------14-11-10-9-8-7-6-7-6-5-6-5-4-3-|


    H         H            H.            Q     
-----------------------|----------------17----|
-----------------------|--15------------------|
-----------------------|----------------------|
-----------------------|----------------------|
--/12~-----------------|----------------------|
-----------------------|----------------------|


   Q.       Q.      Q        H.             Q     
--17b------17------15----|--14~------------14----|
-------------------------|-----------------------|
-------------------------|-----------------------|
-------------------------|-----------------------|
-------------------------|-----------------------|
-------------------------|-----------------------|


                                             \1/     
   Q     Q     Q     Q        H          E   Q.      
--14----15----14----------|-------------------------|
--------------------17----|--15~---------L--14------|
--------------------------|-------------------------|
--------------------------|-------------------------|
--------------------------|-------------------------|
--------------------------|-------------------------|


   Q.      Q.       Q        Q.      E    H         
-------------------------|-------------------------|
--15---------------------|--15------17b---L--------|
----------14~------16----|-------------------------|
-------------------------|-------------------------|
-------------------------|-------------------------|
-------------------------|-------------------------|


   Q     Q      Q      Q        H.             Q     
----------------------------|-----------------17----|
---L----17b----17b----17----|--15~------------------|
----------------------------|-----------------------|
----------------------------|-----------------------|
----------------------------|-----------------------|
----------------------------|-----------------------|


      Q     H          Q        H.             Q     
----------------------17----|--17b------------17----|
--14g15----14~--------------|-----------------------|
----------------------------|-----------------------|
----------------------------|-----------------------|
----------------------------|-----------------------|
----------------------------|-----------------------|


   H.             E   E      H.             E   E   
--19b------------19--21--|--21b------------21--19--|
-------------------------|-------------------------|
-------------------------|-------------------------|
-------------------------|-------------------------|
-------------------------|-------------------------|
-------------------------|-------------------------|


   Q     S  S  S  S  S  S  S  S  S  S  S  S  
--17----14-15-17-15-14-15-14-12-------------|
--------------------------------15-14-15-14-|
--------------------------------------------|
--------------------------------------------|
--------------------------------------------|
--------------------------------------------|


                   PM             
   S  S  S  S  E   E   H          
---------------------------------|
--12-14-12-----------------------|
-----------14-12--14--14~--------|
---------------------------------|
---------------------------------|
---------------------------------|


   H          H             H.             Q     
------------------------|-----------------------|
------------------------|-----------------15----|
--12~--------11~--------|--14~------------------|
------------------------|-----------------------|
------------------------|-----------------------|
------------------------|-----------------------|


   Q.       Q.      E   E      Q     H          Q     
---------------------------|-------------------------|
--17b------17------14--15--|--14----12~--------14----|
---------------------------|-------------------------|
---------------------------|-------------------------|
---------------------------|-------------------------|
---------------------------|-------------------------|


   Q.       Q.      Q        H.             E  E   
-------------------------|------------------------|
--14b------14------------|------------------------|
-------------------11----|--12~------------11--9--|
-------------------------|------------------------|
-------------------------|------------------------|
-------------------------|------------------------|


   H.            Q       Q    Q     Q     Q     
----------------------|------------------------|
----------------------|------------------------|
--11~------------7----|--7----9----11----12----|
----------------------|------------------------|
----------------------|------------------------|
----------------------|------------------------|


   H.            Q        H.             Q     
----------------------|-----------------------|
----------------------|--15~------------17----|
--14~-----------------|-----------------------|
----------------------|-----------------------|
----------------------|-----------------------|
----------------------|-----------------------|


   H          E  E  E   E    
-------------17-------------|
--17b------------------17b--|
----------------------------|
----------------------------|
----------------------------|
----------------------------|


   E   E   E   E  E  E   Q        H.             Q     
------------------------------|-----------------------|
---L--15--17--15--------10----|--12~------------------|
------------------------------|-----------------11----|
------------------------------|-----------------------|
------------------------------|-----------------------|
------------------------------|-----------------------|


   H.             E  E     E   H         E  E  E   
------------------------|-------------------------|
------------------------|-------------------------|
--12~------------11--9--|--9S--7~-----------------|
------------------------|-------------------------|
------------------------|-------------------------|
------------------------|-------------------------|


  H.             Q         H         Q     Q     
-----------------------|------------------------|
-----------------------|------------------------|
--9~------------11~----|---L--------12----14----|
-----------------------|------------------------|
-----------------------|------------------------|
-----------------------|------------------------|


   Q      H.                             
------------------------|-------|-------|
------------------------|-------|-------|
---L~----11~------------|-------|-------|
------------------------|-------|-------|
------------------------|-------|-------|
------------------------|-------|-------|


   E   E   H.                Q     Q     H          
-------------------------|-------------------------|
-------------------------|-------------------------|
--11--12--14b------------|---L----12----11~--------|
-------------------------|-------------------------|
-------------------------|-------------------------|
-------------------------|-------------------------|


   H        H                                          
---------------------|-------|-------|-------|-------||
---------------------|-------|-------|-------|-------||
---L-----------------|-------|-------|-------|-------||
---------------------|-------|-------|-------|-------||
---------------------|-------|-------|-------|-------||
---------------------|-------|-------|-------|-------||




Duration Legend
---------------
W - whole
H - half
Q - quarter
E - 8th
S - 16th
T - 32nd
X - 64th
. - note dotted
|-n-|  - n-tuplets


Tablature Legend
----------------
L - tied note
x - dead note
g - grace note
(n) - ghost note
> - accentuded note
NH - natural harmonic
AH - artificial harmonic
TH - tapped harmonic
SH - semi harmonic
PH - pitch harmonic
h - hammer on
p - pull off
b - bend
br - bendRelease
pb - preBend
pbr - preBendRelease
brb - bendReleaseBend
\n/ - tremolo bar dip
\n - tremolo bar dive
-/n - tremolo bar Release up
/n\ - tremolo bar inverted dip
/n - tremolo bar return
-\n - tremolo bar Release down
S - shift slide
s - legato slide
/ -  slide into from below or out of upwards
\ -  slide into from above or out of downwards
~ - vibrato
W - wide vibrato
tr - trill
TP - tremolo picking
T - tapping
S - slap
P - pop
< - fade in
^ - brush up
v - brush down

comments
print report bad tab
14 comments total. Showing first comments.
0 reply
diprap wrote on March 24 2008, 04:11 pm

cooooooooool

0 reply
Chris-13 wrote on April 6 2008, 05:49 am

Sweeet tab. How long did it take you lol?

0 reply
m Emmer 0019 wrote on June 18 2008, 12:50 am

how do you do the notes that are like 5 7 5 ... etc.
i cant get the effect

I want to post or [tab]
guest
You may want to rate the tab now too:
select rating
Please do not post tabs as comments. Select "correction" instead!