Oops, an error
Loading. Please wait.

Mollys Nightmare - Your Last Goodbye Tab

498 views 1 this week
no commentswrite comment
1 2 3 4 5
please rate
add to favorites launch autoscroll
font size
0
reset
Autoscroll
+/-
esc
set tempo
stop
Contributor
Difficulty
intermediate
WARNING: You are trying to view
                                    content from Ultimate-Guitar.com
                                    in an unauthorized application,
                                    which is prohibited.

                                    Please use an official Ultimate
                                    Guitar Tabs application for iPhone,
                                    iPad or Android to access legitimate
                                    chords, guitar, bass, and drum tabs
                                    from Ultimate-Guitar.com database.

                                    Type "ultimate guitar tabs" in Apple
                                    App Store's or Android Market's
                                    search to find the application.
Album: Your Last Goodbye
Band: Molly's Nightmare
Tabbed by: Demonkid
Email: demonkidman@yahoo.com

This is Bill Casey, just wanted to say hey and thanks for looking at the tabs. This is
my band's new album, Your Last Goodbye, out February 2008. You can hear some of our songs
going to http://www.myspace.com/mollysnightmare AND http://www.myspace.com/thebetrayed13


SONGS MISSING:
Track 4: Prep Academy
Track 6: No Control
Track 9: Nitrogen Nightmare
Track 10: The Beginning Of It All
Track 11: From Pancakes To Prostitutes

----------------------------------------------------------------------------

TRACK NO. 1 – INTRO (WAKE UP, WILD WEST)


Guitar 1: Bill Casey (Drop D)
Guitar 2: Billy Sandland (Drop D)


INTRO:

Guitar 1
E------------------|
B------------------|
G------------------| 2x
D--00--88--77--55--|
A--00--88--77--55--|
D--00--88--77--55--|
(continued)
E------------------|
B------------------|
G------------------| 2x
D--00--33--55--33--|
A--00--33--55--33--|
D--00--33--55--33--|
(continued)
E------------------|
B------------------|
G------------------| 2x
D--00--88--77--55--|
A--00--88--77--55--|
D--00--88--77--55--|
(continued)
E------------------|
B------------------|
G------------------| 2x
D--00--33--55--33--|
A--00--33--55--33--|
D--00--33--55--33--|
(continued)
E---------------------|
B---------------------|
G--(8x)--(4x)---------|
D---12----10---10-10--|
A---12----10---10-10--|
D---12----10---10-10--|


Repeat entire thing over while Guitar 2 comes in with this.

Guitar 2 (end right before guitar 1 plays last segment of the riff)
E-------------------------------------|
B------6------6------6------6------6--|
G--7-9----7-9----7-9----7-9----7-9----| 4x
D-------------------------------------|
A-------------------------------------|
D-------------------------------------|

----------------------------------------------------------------------------

TRACK NO. 2 - CORRUPTION


Guitar 1: Bill Casey (Drop D)
Guitar 2: Billy Sandland (Drop D)
Guitar 3: Mike McHoul (Drop D)


INTRO:

Guitar 1
E---------|
B---------|
G----9----| 4x
D----x----|
A----7----|
D--(16X)--|

On second time, Guitar 2 comes in:

Guitar 2
E---------|
B---------|
G----5----| 2x
D----5----|
A----3----|
D--(16X)--|

Then...

Guitar 1
E----------------------------------------------|
B----------------------------------------------|
G------9/10-------10\9-------12\10-------9/10--| 4x
D--00--x/-x---00---x\x---00---x\-x---00--x/-x--|
A--00--7/-8---00---8\7---00--10\-8---00--7/-8--|
D--00---------00---------00----------00--------|

On second time above;

Guitar 2
E----------------------------------------------|
B----------------------------------------------|
G------9/10-------10\9-------12\10-------9/10--|
D--00--7/-8---00---8\7---00--10\-8---00--7/-8--| 2x
A--00--7/-8---00---8\7---00--10\-8---00--7/-8--|
D--00--7/-8---00---8\7---00--10\-8---00--7/-8--|


CHORUS:

Guitar 1: (on 3rd and 4th time, make the string D,A,D the same frets as the original “A”
on the 1st and 2nd times. Keep the G notes the way they’re supposed to be)
E---------------------------------------|
B---------------------------------------|
G------7------5-----10------9------7/9--| 4x
D--00--x--00--x--00--x--00--x--00--x/x--|
A--00--5--00--3--00--8--00--7--00--5/7--|
D--00-----00-----00-----00-----00-------|

Guitar 2:
E---------------------------------------|
B---------------------------------------|
G---------------------------------------| 4x
D--00--5--00--3--00--8--00--7--00--5/7--|
A--00--5--00--3--00--8--00--7--00--5/7--|
D--00--5--00--3--00--8--00--7--00--5/7--|


Guitar 1: (on 3rd and 4th time, make the string D,A,D the same frets as the original “A”
on the 1st and 2nd times. Keep the G notes the way they’re supposed to be)
E----------------------------------------|
B----------------------------------------|
G-----10------9-----12-----10------9/10--| 4x
D--00--x--00--x--00--x--00--x--00--x/-x--|
A--00--8--00--7--00-10--00--8--00--7/-8--|
D--00-----00-----00-----00-----00--------|

Guitar 2:
E----------------------------------------|
B----------------------------------------|
G----------------------------------------| 4x
D--00-12--00-10--00-13--00-12--00-10/12--|
A--00-12--00-10--00-13--00-12--00-10/12--|
D--00-12--00-10--00-13--00-12--00-10/12--|

(Don’t play the last four chords on both guitars on the 4th time)


VERSE: (If you have 3 guitarists, Guitar 3 is all of Guitar 1)

Guitar 1
E----------------------------------|
B----------------------------------|
G-----7-----5-----9-----4-----4/5--| 2x
D--55-5--55-3--33-7--77-2--22-2/3--|
A--55-5--55-3--33-7--77-2--22-2/3--|
D--55-5--55-3--33-7--77-2--22-2/3--|
   ..    ..    ..    ..    ..

Guitar 2
E----------------------------------|
B----------------------------------|
G-----7-----5-----9-----4-----4/5--| 2x
D--55-5--55-3--33-7--77-2--22-2/3--|
A--55-5--55-3--33-7--77-2--22-2/3--|
D--55-5--55-3--33-7--77-2--22-2/3--|
   ..    ..    ..    ..    ..


Guitar 1
E----------------------------------|
B----------------------------------|
G-----7-----5-----9-----5-----4/5--| 2x
D--55-5--55-3--33-7--77-3--22-2/3--|
A--55-5--55-3--33-7--77-3--22-2/3--|
D--55-5--55-3--33-7--77-3--22-2/3--|
   ..    ..    ..    ..    ..

Guitar 2
E----------------------------------|
B----------------------------------|
G-----7-----5-----9-----5-----4/5--| 2x
D--55-5--55-3--33-7--77-3--22-2/3--|
A--55-5--55-3--33-7--77-3--22-2/3--|
D--55-5--55-3--33-7--77-3--22-2/3--|
   ..    ..    ..    ..    ..


Guitar 1
E----------------------------------|
B----------------------------------|
G-----7-----5-----9-----4-----4/5--| 2x
D--55-5--55-3--33-7--77-2--22-2/3--|
A--55-5--55-3--33-7--77-2--22-2/3--|
D--55-5--55-3--33-7--77-2--22-2/3--|
   ..    ..    ..    ..    ..

Guitar 2
E-----------------------------------|
B-----------------------------------|
G--7-7-7--5-5-5--9-9-9--4-4-4--4/5--| 2x
D--x-x-x--x-x-x--x-x-x--x-x-x--x/x--|
A--5-5-5--3-3-3--7-7-7--2-2-2--2/3--|
D-----------------------------------|


Guitar 1
E----------------------------------|
B----------------------------------|
G-----7-----5-----9-----5-----4/5--| 1x
D--55-5--55-3--33-7--77-3--22-2/3--|
A--55-5--55-3--33-7--77-3--22-2/3--|
D--55-5--55-3--33-7--77-3--22-2/3--|
   ..    ..    ..    ..    ..

Guitar 2
E-----------------------------------|
B-----------------------------------|
G--7-7-7--5-5-5--9-9-9--5-5-5--4/5--| 1x
D--x-x-x--x-x-x--x-x-x--x-x-x--x/x--|
A--5-5-5--3-3-3--7-7-7--3-3-3--2/3--|
D-----------------------------------|


Guitar 1
E----------------------------------|
B----------------------------------|
G-----7-----5-----9-----5-----4~~--| 1x
D--55-5--55-3--33-7--77-3--22-2~~--|
A--55-5--55-3--33-7--77-3--22-2~~--|
D--55-5--55-3--33-7--77-3--22-2~~--|
   ..    ..    ..    ..    ..

Guitar 2
E-----------------------------------|
B-----------------------------------|
G--7-7-7--5-5-5--9-9-9--5-5-5--4~~--| 1x
D--x-x-x--x-x-x--x-x-x--x-x-x--x~~--|
A--5-5-5--3-3-3--7-7-7--3-3-3--2~~--|
D-----------------------------------|


[REPEAT CHORUS]


VERSE: (If you have 3 guitarists, Guitar 3 is all of Guitar 1)

Guitar 1
E----------------------------------|
B----------------------------------|
G-----7-----5-----9-----4-----4/5--| 2x
D--55-5--55-3--33-7--77-2--22-2/3--|
A--55-5--55-3--33-7--77-2--22-2/3--|
D--55-5--55-3--33-7--77-2--22-2/3--|
   ..    ..    ..    ..    ..

Guitar 2
E-----------------------------------|
B-----------------------------------|
G--7-7-7--5-5-5--9-9-9--4-4-4--4/5--| 2x
D--x-x-x--x-x-x--x-x-x--x-x-x--x/x--|
A--5-5-5--3-3-3--7-7-7--2-2-2--2/3--|
D-----------------------------------|


Guitar 1
E----------------------------------|
B----------------------------------|
G-----7-----5-----9-----5-----4/5--| 2x
D--55-5--55-3--33-7--77-3--22-2/3--|
A--55-5--55-3--33-7--77-3--22-2/3--|
D--55-5--55-3--33-7--77-3--22-2/3--|
   ..    ..    ..    ..    ..

Guitar 2
E-----------------------------------|
B-----------------------------------|
G--7-7-7--5-5-5--9-9-9--4-4-4--4/5--| 2x
D--x-x-x--x-x-x--x-x-x--x-x-x--x/x--|
A--5-5-5--3-3-3--7-7-7--2-2-2--2/3--|
D-----------------------------------|


Guitar 1
E----------------------------------|
B----------------------------------|
G-----7-----5-----9-----4-----4/5--| 2x
D--55-5--55-3--33-7--77-2--22-2/3--|
A--55-5--55-3--33-7--77-2--22-2/3--|
D--55-5--55-3--33-7--77-2--22-2/3--|
   ..    ..    ..    ..    ..

Guitar 2
E-----------------------------------|
B-----------------------------------|
G--7-7-7--5-5-5--9-9-9--4-4-4--4/5--| 2x
D--x-x-x--x-x-x--x-x-x--x-x-x--x/x--|
A--5-5-5--3-3-3--7-7-7--2-2-2--2/3--|
D-----------------------------------|


Guitar 1
E----------------------------------|
B----------------------------------|
G-----7-----5-----9-----5-----4/5--| 1x
D--55-5--55-3--33-7--77-3--22-2/3--|
A--55-5--55-3--33-7--77-3--22-2/3--|
D--55-5--55-3--33-7--77-3--22-2/3--|
   ..    ..    ..    ..    ..

Guitar 2
E-----------------------------------|
B-----------------------------------|
G--7-7-7--5-5-5--9-9-9--5-5-5--4/5--| 1x
D--x-x-x--x-x-x--x-x-x--x-x-x--x/x--|
A--5-5-5--3-3-3--7-7-7--3-3-3--2/3--|
D-----------------------------------|


Guitar 1
E----------------------------|
B----------------------------|
G-----7-----5-----9-----5~~--| 1x
D--55-5--55-3--33-7--77-3~~--|
A--55-5--55-3--33-7--77-3~~--|
D--55-5--55-3--33-7--77-3~~--|
   ..    ..    ..    ..

Guitar 2
E----------------------------|
B----------------------------|
G--7-7-7--5-5-5--9-9-9--5~~--| 1x
D--x-x-x--x-x-x--x-x-x--x~~--|
A--5-5-5--3-3-3--7-7-7--3~~--|
D----------------------------|


INTERLUDE:

Guitar 1
E|-----------------------------------|
B|-----------------------------------|
G|-------7-------5-------10-------9--| 2x
D|--0000-x--0000-x--0000--x--0000-x--|
A|--0000-5--0000-3--0000--8--0000-7--|
D|--0000----0000----0000-----0000----|
    ....    ....    ....    ....

Guitar 2
E|----------------------------------|
B|----------------------------------|
G|----------------------------------| 2x
D|--0000-5--0000-3--0000-8--0000-7--|
A|--0000-5--0000-3--0000-8--0000-7--|
D|--0000-5--0000-3--0000-8--0000-7--|
    ....    ....    ....    ....


Guitar 1
E|---------------------------------------|
B|---------------------------------------|
G|-------10-------9-------12-------10\9--| 2x
D|--0000--x--0000-x--0000--x--0000--x\x--|
A|--0000--8--0000-7--0000-10--0000--8\7--|
D|--0000-----0000----0000-----0000-------|
    ....     ....    ....     ....

Guitar 2
E|-----------------------------------------|
B|-----------------------------------------|
G|-----------------------------------------| 2x
D|--0000-12--0000-10--0000-13--0000-12/10--|
A|--0000-12--0000-10--0000-13--0000-12/10--|
D|--0000-12--0000-10--0000-13--0000-12/10--|
    ....     ....     ....     ....


Guitar 1
E--------------------------------|
B--------------------------------|
G---10----9-----12----10---10\9--|
D----x----x------x-----x----x\x--|
A----8----7-----10-----8----8\7--|
D--(5x)--(5x)--(5x)--(4x)--------|

Guitar 2:
E-------------------------|
B-------------------------|
G-(5x)(5x)(5x)(4x)--------|
D--12--10--13--12--12\10--|
A--12--10--13--12--12\10--|
D--12--10--13--12--12\10--|


Guitar 1
E--------------------------------|
B--------------------------------|
G---10----9-----12----10---10\9--|
D---10----9-----12----10---10\9--|
A----8----7-----10-----8----8\7--|
D--(5x)--(5x)--(5x)--(4x)--------|

Guitar 2:
E---------------------------------|
B---------------------------------|
G--(5x)--(5x)--(5x)--(4x)---------|
D---12----10----13----12---12\10--|
A---12----10----13----12---12\10--|
D---12----10----13----12---12\10--|


CHORUS:

Guitar 1:
E---------------------------------------|
B---------------------------------------|
G------7------5-----10------9------7/9--| 2x
D--00--x--00--x--00--x--00--x--00--x/x--|
A--00--5--00--3--00--8--00--7--00--5/7--|
D--00-----00-----00-----00-----00-------|

Guitar 2:
E---------------------------------------|
B---------------------------------------|
G---------------------------------------| 2x
D--00--5--00--3--00--8--00--7--00--5/7--|
A--00--5--00--3--00--8--00--7--00--5/7--|
D--00--5--00--3--00--8--00--7--00--5/7--|


Guitar 1:
E---------------------------------------|
B---------------------------------------|
G------7------5-----10------9------7/9--| 2x
D--00--5--00--3--00--8--00--7--00--5/7--|
A--00--5--00--3--00--8--00--7--00--5/7--|
D--00--5--00--3--00--8--00--7--00--5/7--|

Guitar 2:
E---------------------------------------|
B---------------------------------------|
G---------------------------------------| 2x
D--00--5--00--3--00--8--00--7--00--5/7--|
A--00--5--00--3--00--8--00--7--00--5/7--|
D--00--5--00--3--00--8--00--7--00--5/7--|


Guitar 1
E----------------------------------------|
B----------------------------------------|
G-----10------9-----12-----10------9/10--| 2x
D--00--x--00--x--00--x--00--x--00--x/-x--|
A--00--8--00--7--00-10--00--8--00--7/-8--|
D--00-----00-----00-----00-----00--------|

Guitar 2:
E----------------------------------------|
B----------------------------------------|
G----------------------------------------| 2x
D--00-12--00-10--00-13--00-12--00-10/12--|
A--00-12--00-10--00-13--00-12--00-10/12--|
D--00-12--00-10--00-13--00-12--00-10/12--|


Guitar 1
E----------------------------------------|
B----------------------------------------|
G-----10------9-----12-----10------9/10--| 1x
D--00--8--00--7--00-10--00--8--00--7/-8--|
A--00--8--00--7--00-10--00--8--00--7/-8--|
D--00--8--00--7--00-10--00--8--00--7/-8--|

Guitar 2:
E----------------------------------------|
B----------------------------------------|
G----------------------------------------| 1x
D--00-12--00-10--00-13--00-12--00-10/12--|
A--00-12--00-10--00-13--00-12--00-10/12--|
D--00-12--00-10--00-13--00-12--00-10/12--|


Guitar 1
E---------------------------------------|
B---------------------------------------|
G-----10------9-----12-----10------9~~--| 1x
D--00--8--00--7--00-10--00--8--00--7~~--|
A--00--8--00--7--00-10--00--8--00--7~~--|
D--00--8--00--7--00-10--00--8--00--7~~--|

Guitar 2:
E---------------------------------------|
B---------------------------------------|
G---------------------------------------| 1x
D--00-12--00-10--00-13--00-12--00-10~~--|
A--00-12--00-10--00-13--00-12--00-10~~--|
D--00-12--00-10--00-13--00-12--00-10~~--|

----------------------------------------------------------------------------

TRACK NO. 3 - THIS IS IT


Guitar 1: Bill Casey (Standard)
Guitar 2: Billy Sandland (Standard)
Guitar 3: Mike McHoul (Standard)


INTRO:

Guitar 1
E--13-13-13-13-13-13-13-13-12-12-12-12-12-12-12-12--|
B--15-15-15-15-15-15-15-15-15-15-15-15-15-15-15-15--|
G--14-14-14-14-14-14-14-14-14-14-14-14-14-14-14-14--| 2x
D---------------------------------------------------|
A---------------------------------------------------|
E---------------------------------------------------|
(continued)
E--13-13-13-13-13-13-13-13-12-12-12-12-12-12-12-12--|
B--15-15-15-15-15-15-15-15-15-15-15-15-15-15-15-15--|
G--14-14-14-14-14-14-14-14-14-14-14-14-14-14-14-14--| 2x
D---0~~---------0~~---------0~~---------0~~---------|
A---0~~---------0~~---------0~~---------0~~---------|
E---------------------------------------------------|


BREAKDOWN:

Guitar 1:
E------------------------------------|
B------------------------------------|
G--10-10-10-10-10-10-12-12b13r12-10--| 2x
D------------------------------------|
A------------------------------------|
E------------------------------------|
(continued)
E--------------------------|
B--------------------------|
G--7-7-7-7-7-7-9-9b10r9-7--|
D--------------------------|
A--------------------------|
E--------------------------|
(continued)
E-----------------------------------------------|
B-----------------------------------------------|
G--9-9-9-9-10-10-10-10-12-12-12-12-10-10-10-10--|
D-----------------------------------------------|
A-----------------------------------------------|
E-----------------------------------------------|

Repeat entire thing

Guitar 2:
E------------------------------------------------------|
B------------------------------------------------------|
G--7-7-7-7-7-7--5-5-5-5-5-5--3-3-3-3-3-3--2-2-2-2-2-2--|
D--7-7-7-7-7-7--5-5-5-5-5-5--3-3-3-3-3-3--2-2-2-2-2-2--|
A--5-5-5-5-5-5--3-3-3-3-3-3--1-1-1-1-1-1--0-0-0-0-0-0--|
E------------------------------------------------------|
(continued)
E---------------------------------------------------------------|
B---------------------------------------------------------------|
G---------------------------------------------6-6-6-6--7-7-7-7--| 2x
D--5-5-5-5-5-5-5-5-5-5-5-5--7-7-7-7--8-8-8-8--x-x-x-x--x-x-x-x--|
A--5-5-5-5-5-5-5-5-5-5-5-5--7-7-7-7--8-8-8-8--4-4-4-4--5-5-5-5--|
E--3-3-3-3-3-3-3-3-3-3-3-3--5-5-5-5--6-6-6-6--------------------|

Guitar 3:
E------------------------------------|
B------------------------------------|
G--10-10-10-10-10-10-12-12b13r12-10--| 2x
D------------------------------------|
A------------------------------------|
E------------------------------------|
(continued)
E--------------------------|
B--------------------------|
G--7-7-7-7-7-7-9-9b10r9-7--|
D--------------------------|
A--------------------------|
E--------------------------|
(continued)
E-----------------------------------------------|
B-----------------------------------------------|
G--9-9-9-9-10-10-10-10-12-12-12-12-10-10-10-10--|
D-----------------------------------------------|
A-----------------------------------------------|
E-----------------------------------------------|

Repeat entire thing


VERSE:

Guitar 1:
E------------------------------------------------------------------|
B------------------------------------------------------------------|
G--7-7-7-7-7-7--9-9-9-9-9-9--11-11-11-11-11-11--12-12-12-14-14-14--| 2x
D--x-x-x-x-x-x--x-x-x-x-x-x---x--x--x--x--x--x---x--x--x--x--x--x--|
A--5-5-5-5-5-5--7-7-7-7-7-7---9--9--9--9--9--9--10-10-10-12-12-12--|
E------------------------------------------------------------------|

Guitar 2:
E--------------------------------------------------------------|
B--------------------------------------------------------------|
G--7-7-7-7-7-7--9-9-9-9-9-9--6-6-6-6-6-6--12-12-12-14-14-14----| 2x
D--x-x-x-x-x-x--x-x-x-x-x-x--x-x-x-x-x-x---x--x--x--x--x--x----|
A--5-5-5-5-5-5--7-7-7-7-7-7--4-4-4-4-4-4--10-10-10-12-12-12----|
E--------------------------------------------------------------|


Guitar 1:
E------------------------------------------------------------------|
B------------------------------------------------------------------|
G--7-7-7-7-7-7--9-9-9-9-9-9--11-11-11-11-11-11--12-12-12-14-14-14--|
D--7-7-7-7-7-7--9-9-9-9-9-9--11-11-11-11-11-11--12-12-12-14-14-14--|
A--5-5-5-5-5-5--7-7-7-7-7-7---9--9--9--9--9--9--10-10-10-12-12-12--|
E------------------------------------------------------------------|

Guitar 2:
E------------------------------------------------------------|
B------------------------------------------------------------|
G--7-7-7-7-7-7--9-9-9-9-9-9--6-6-6-6-6-6--12-12-12-14-14-14--|
D--7-7-7-7-7-7--9-9-9-9-9-9--6-6-6-6-6-6--12-12-12-14-14-14--|
A--5-5-5-5-5-5--7-7-7-7-7-7--4-4-4-4-4-4--10-10-10-12-12-12--|
E------------------------------------------------------------|


Guitar 1:
E-------------------------------------------------------------------------|
B-------------------------------------------------------------------------|
G--7-7-7-7-7-7--9-9-9-9-9-9--11-11-11-11-11-11--9-9-9-9-9-9--7-7-7-7-7-7--|
D--7-7-7-7-7-7--9-9-9-9-9-9--11-11-11-11-11-11--9-9-9-9-9-9--7-7-7-7-7-7--|
A--5-5-5-5-5-5--7-7-7-7-7-7---9--9--9--9--9--9--7-7-7-7-7-7--5-5-5-5-5-5--|
E-------------------------------------------------------------------------|

Guitar 2:
E-------------------------------------------------------------------|
B-------------------------------------------------------------------|
G--7-7-7-7-7-7--9-9-9-9-9-9--6-6-6-6-6-6--9-9-9-9-9-9--7-7-7-7-7-7--|
D--7-7-7-7-7-7--9-9-9-9-9-9--6-6-6-6-6-6--9-9-9-9-9-9--7-7-7-7-7-7--|
A--5-5-5-5-5-5--7-7-7-7-7-7--4-4-4-4-4-4--7-7-7-7-7-7--5-5-5-5-5-5--|
E-------------------------------------------------------------------|


CHORUS:

Guitar 1
E------------------------------------------------------|
B------------------------------------------------------|
G--5-5-5-5-5-5--7-7-7-7-7-7--4-4-4-4-4-4--5-5-5-5-5-5--| 3x
D--5-5-5-5-5-5--7-7-7-7-7-7--5-5-5-5-5-5--5-5-5-5-5-5--|
A--3-3-3-3-3-3--5-5-5-5-5-5--2-2-2-2-2-2--3-3-3-3-3-3--|
E------------------------------------------------------|

Guitar 2:
E------------------------------------------------------------|
B------------------------------------------------------------|
G------------------------------------------------------------| 3x
D--5-5-5-5-5-5--7-7-7-7-7-7--9-9-9-9-9-9--11-11-11-11-11-11--|
A--5-5-5-5-5-5--7-7-7-7-7-7--9-9-9-9-9-9--11-11-11-11-11-11--|
E--3-3-3-3-3-3--5-5-5-5-5-5--7-7-7-7-7-7---9--9--9--9--9--9--|

Guitar 3: (comes in on 3rd time above)
E------------------------------------------------------|
B------------------------------------------------------|
G--5-5-5-5-5-5--7-7-7-7-7-7--4-4-4-4-4-4--5-5-5-5-5-5--|
D------------------------------------------------------|
A------------------------------------------------------|
E------------------------------------------------------|


Guitar 1
E----------------------------------|
B----------------------------------|
G--5-5-5-5-5-5--7-7-7-7-7-7--4~~~--|
D--5-5-5-5-5-5--7-7-7-7-7-7--5~~~--|
A--3-3-3-3-3-3--5-5-5-5-5-5--2~~~--|
E----------------------------------|

Guitar 2:
E----------------------------------|
B----------------------------------|
G----------------------------------| 2x
D--5-5-5-5-5-5--7-7-7-7-7-7--9~~~--|
A--5-5-5-5-5-5--7-7-7-7-7-7--9~~~--|
E--3-3-3-3-3-3--5-5-5-5-5-5--7~~~--|

Guitar 3:
E----------------------------------|
B----------------------------------|
G--5-5-5-5-5-5--7-7-7-7-7-7--4~~~--|
D----------------------------------|
A----------------------------------|
E----------------------------------|


BREAKDOWN #2:

Guitar 1:
E------------------------------------|
B------------------------------------|
G--10-10-10-10-10-10-12-12b13r12-10--| 2x
D------------------------------------|
A------------------------------------|
E------------------------------------|
(continued)
E--------------------------|
B--------------------------|
G--7-7-7-7-7-7-9-9b10r9-7--|
D--------------------------|
A--------------------------|
E--------------------------|
(continued)
E-----------------------------------------------|
B-----------------------------------------------|
G--9-9-9-9-10-10-10-10-12-12-12-12-10-10-10-10--|
D-----------------------------------------------|
A-----------------------------------------------|
E-----------------------------------------------|

Repeat entire thing four times total

Guitar 2:
E------------------------------------------------------|
B------------------------------------------------------|
G--7-7-7-7-7-7--5-5-5-5-5-5--3-3-3-3-3-3--2-2-2-2-2-2--|
D--7-7-7-7-7-7--5-5-5-5-5-5--3-3-3-3-3-3--2-2-2-2-2-2--|
A--5-5-5-5-5-5--3-3-3-3-3-3--1-1-1-1-1-1--0-0-0-0-0-0--|
E------------------------------------------------------|
(continued)
E---------------------------------------------------------------|
B---------------------------------------------------------------|
G---------------------------------------------6-6-6-6--7-7-7-7--| 4x
D--5-5-5-5-5-5-5-5-5-5-5-5--7-7-7-7--8-8-8-8--x-x-x-x--x-x-x-x--|
A--5-5-5-5-5-5-5-5-5-5-5-5--7-7-7-7--8-8-8-8--4-4-4-4--5-5-5-5--|
E--3-3-3-3-3-3-3-3-3-3-3-3--5-5-5-5--6-6-6-6--------------------|

Guitar 3:
E------------------------------------|
B------------------------------------|
G--10-10-10-10-10-10-12-12b13r12-10--| 2x
D---x--x--x--x--x--x--x--xb-xr-x--x--|
A---8--8--8--8--8--8-10-10-11-10--8--|
E------------------------------------|
(continued)
E--------------------------|
B--------------------------|
G--7-7-7-7-7-7-9-9b10r9-7--|
D--x-x-x-x-x-x-x-xb-xrx-x--|
A--5-5-5-5-5-5-7-7b-8r7-5--|
E--------------------------|
(continued)
E-----------------------------------------------|
B-----------------------------------------------|
G--9-9-9-9-10-10-10-10-12-12-12-12-10-10-10-10--|
D--x-x-x-x--x--x--x--x--x--x--x--x--x--x--x--x--|
A--7-7-7-7--8--8--8--8-10-10-10-10--8--8--8--8--|
E-----------------------------------------------|

Repeat entire thing four times total


VERSE:

Guitar 1:
E------------------------------------------------------------------|
B------------------------------------------------------------------|
G--7-7-7-7-7-7--9-9-9-9-9-9--11-11-11-11-11-11--12-12-12-14-14-14--| 2x
D--x-x-x-x-x-x--x-x-x-x-x-x---x--x--x--x--x--x---x--x--x--x--x--x--|
A--5-5-5-5-5-5--7-7-7-7-7-7---9--9--9--9--9--9--10-10-10-12-12-12--|
E------------------------------------------------------------------|

Guitar 2:
E--------------------------------------------------------------|
B--------------------------------------------------------------|
G--7-7-7-7-7-7--9-9-9-9-9-9--6-6-6-6-6-6--12-12-12-14-14-14----| 2x
D--x-x-x-x-x-x--x-x-x-x-x-x--x-x-x-x-x-x---x--x--x--x--x--x----|
A--5-5-5-5-5-5--7-7-7-7-7-7--4-4-4-4-4-4--10-10-10-12-12-12----|
E--------------------------------------------------------------|


Guitar 1:
E------------------------------------------------------------------|
B------------------------------------------------------------------|
G--7-7-7-7-7-7--9-9-9-9-9-9--11-11-11-11-11-11--12-12-12-14-14-14--|
D--7-7-7-7-7-7--9-9-9-9-9-9--11-11-11-11-11-11--12-12-12-14-14-14--|
A--5-5-5-5-5-5--7-7-7-7-7-7---9--9--9--9--9--9--10-10-10-12-12-12--|
E------------------------------------------------------------------|

Guitar 2:
E------------------------------------------------------------|
B------------------------------------------------------------|
G--7-7-7-7-7-7--9-9-9-9-9-9--6-6-6-6-6-6--12-12-12-14-14-14--|
D--7-7-7-7-7-7--9-9-9-9-9-9--6-6-6-6-6-6--12-12-12-14-14-14--|
A--5-5-5-5-5-5--7-7-7-7-7-7--4-4-4-4-4-4--10-10-10-12-12-12--|
E------------------------------------------------------------|


Guitar 1:
E------------------------------------------------------------------|
B------------------------------------------------------------------|
G--7-7-7-7-7-7--9-9-9-9-9-9--11-11-11-11-11-11--12-12-12-11-11-11--|
D--7-7-7-7-7-7--9-9-9-9-9-9--11-11-11-11-11-11--12-12-12-11-11-11--|
A--5-5-5-5-5-5--7-7-7-7-7-7---9--9--9--9--9--9--12-12-12-11-11-11--|
E------------------------------------------------------------------|

Guitar 2:
E------------------------------------------------------------|
B------------------------------------------------------------|
G--7-7-7-7-7-7--9-9-9-9-9-9--6-6-6-6-6-6--12-12-12-11-11-11--|
D--7-7-7-7-7-7--9-9-9-9-9-9--6-6-6-6-6-6--12-12-12-11-11-11--|
A--5-5-5-5-5-5--7-7-7-7-7-7--4-4-4-4-4-4--12-12-12-11-11-11--|
E------------------------------------------------------------|


CHORUS:

Guitar 1
E------------------------------------------------------|
B------------------------------------------------------|
G--7-7-7-7-7-7--9-9-9-9-9-9--6-6-6-6-6-6--7-7-7-7-7-7--| 3x
D--7-7-7-7-7-7--9-9-9-9-9-9--6-6-6-6-6-6--7-7-7-7-7-7--|
A--5-5-5-5-5-5--7-7-7-7-7-7--4-4-4-4-4-4--5-5-5-5-5-5--|
E------------------------------------------------------|

Guitar 2:
E------------------------------------------------------|
B------------------------------------------------------|
G--7-7-7-7-7-7--9-9-9-9-9-9--6-6-6-6-6-6--7-7-7-7-7-7--| 3x
D--x-x-x-x-x-x--x-x-x-x-x-x--x-x-x-x-x-x--x-x-x-x-x-x--|
A--5-5-5-5-5-5--7-7-7-7-7-7--4-4-4-4-4-4--5-5-5-5-5-5--|
E------------------------------------------------------|

Guitar 3: (comes in on 3rd time above)
E------------------------------------------------------|
B------------------------------------------------------|
G--7-7-7-7-7-7--9-9-9-9-9-9--6-6-6-6-6-6--7-7-7-7-7-7--|
D------------------------------------------------------|
A------------------------------------------------------|
E------------------------------------------------------|


Guitar 1
E----------------------------------|
B----------------------------------|
G--7-7-7-7-7-7--9-9-9-9-9-9--6~~~--|
D--7-7-7-7-7-7--9-9-9-9-9-9--6~~~--|
A--5-5-5-5-5-5--7-7-7-7-7-7--4~~~--|
E----------------------------------|

Guitar 2:
E----------------------------------|
B----------------------------------|
G--7-7-7-7-7-7--9-9-9-9-9-9--6~~~--|
D--x-x-x-x-x-x--x-x-x-x-x-x--x~~~--|
A--5-5-5-5-5-5--7-7-7-7-7-7--4~~~--|
E----------------------------------|

Guitar 3:
E----------------------------------|
B----------------------------------|
G--7-7-7-7-7-7--9-9-9-9-9-9--6~~~--|
D----------------------------------|
A----------------------------------|
E----------------------------------|


OUTRO:

Guitar 1:
E------9/11-9------7/9-7--5/7-5--|
B--7-9---------5-7---------------|
G--------------------------------|
D--------------------------------|
A--------------------------------|
E--------------------------------|

Then

Guitar 1:
E----------11----------11----------12----------12--|
B--9-11/12-----9-11/12-----9-11/12-----9-11/12-----|
G--------------------------------------------------|
D--------------------------------------------------|
A--------------------------------------------------|
E--------------------------------------------------|
(continued)
E----------11----------11----------------------------------|
B--9-11/12-----9-11/12-----9-11/12-12--9-11/12-11-9-7-9~~--|
G----------------------------------------------------------|
D----------------------------------------------------------|
A----------------------------------------------------------|
E----------------------------------------------------------|

Guitar 2:
E----------------------------------------|
B--------9--------9--------10--------10--|
G--6-8/9----6-8/9----6-8/9-----6-8/9-----|
D----------------------------------------|
A----------------------------------------|
E----------------------------------------|
(continued)
E----------------------------------------------|
B--------9--------9----------------------------|
G--6-8/9----6-8/9----6-8/9-9--6-8/9-8-6-4-6~~--|
D----------------------------------------------|
A----------------------------------------------|
E----------------------------------------------|

Guitar 3:
E-----------------------------------|
B-----------------------------------|
G-----------------------------------|
D--3-3-3-3-3-3-3-3-3-3-3-3-3-3-3-3--|
A--3-3-3-3-3-3-3-3-3-3-3-3-3-3-3-3--|
E--1-1-1-1-1-1-1-1-1-1-1-1-1-1-1-1--|
   . . . . . . . . . . . . . . . .
(continued)
E-----------------------------------|
B-----------------------------------|
G-----------------------------------|
D--5-5-5-5-5-5-5-5-5-5-5-5-5-5-5-5--|
A--5-5-5-5-5-5-5-5-5-5-5-5-5-5-5-5--|
E--3-3-3-3-3-3-3-3-3-3-3-3-3-3-3-3--|
   . . . . . . . . . . . . . . . .
(continued)
E-----------------------------------|
B-----------------------------------|
G-----------------------------------|
D--7-7-7-7-7-7-7-7-7-7-7-7-7-7-7-7--|
A--7-7-7-7-7-7-7-7-7-7-7-7-7-7-7-7--|
E--5-5-5-5-5-5-5-5-5-5-5-5-5-5-5-5--|
   . . . . . . . . . . . . . . . .
(continued)
E---------------------------------------|
B---------------------------------------|
G---------------------------------------|
D--9-9-9-9-9-9-9-9-9-9-9-9--7-5-3--3~~--|
A--9-9-9-9-9-9-9-9-9-9-9-9--7-5-3--3~~--|
E--7-7-7-7-7-7-7-7-7-7-7-7--5-3-1--1~~--|
   . . . . . . . . . . . .  . . .


OUTRO PART 2:

Guitar 1:
E------9/11-9------7/9-7--5/7-5--4-5-4-2--|
B--7-9---------5-7------------------------|
G-----------------------------------------|
D-----------------------------------------|
A-----------------------------------------|
E-----------------------------------------|

Guitar 2:
E-----------------------------------------|
B------7/9-7------5/7-5--3/5-3--2-4-2-0---|
G--4-5--------2-4-------------------------|
D-----------------------------------------|
A-----------------------------------------|
E-----------------------------------------|

Then

Guitar 1:
E----------11----------11----------12----------12--|
B--9-11/12-----9-11/12-----9-11/12-----9-11/12-----|
G--------------------------------------------------|
D--------------------------------------------------|
A--------------------------------------------------|
E--------------------------------------------------|
(continued)
E----------11----------11----------------------------------|
B--9-11/12-----9-11/12-----9-11/12-12--9-11/12-11-9-7-9~~--|
G----------------------------------------------------------|
D----------------------------------------------------------|
A----------------------------------------------------------|
E----------------------------------------------------------|

Guitar 2:
E----------------------------------------|
B--------9--------9--------10--------10--|
G--6-8/9----6-8/9----6-8/9-----6-8/9-----|
D----------------------------------------|
A----------------------------------------|
E----------------------------------------|
(continued)
E----------------------------------------------|
B--------9--------9----------------------------|
G--6-8/9----6-8/9----6-8/9-9--6-8/9-8-6-4-6~~--|
D----------------------------------------------|
A----------------------------------------------|
E----------------------------------------------|

Guitar 3:
E-----------------------------------|
B-----------------------------------|
G-----------------------------------|
D--3-3-3-3-3-3-3-3-3-3-3-3-3-3-3-3--|
A--3-3-3-3-3-3-3-3-3-3-3-3-3-3-3-3--|
E--1-1-1-1-1-1-1-1-1-1-1-1-1-1-1-1--|
   . . . . . . . . . . . . . . . .
(continued)
E-----------------------------------|
B-----------------------------------|
G-----------------------------------|
D--5-5-5-5-5-5-5-5-5-5-5-5-5-5-5-5--|
A--5-5-5-5-5-5-5-5-5-5-5-5-5-5-5-5--|
E--3-3-3-3-3-3-3-3-3-3-3-3-3-3-3-3--|
   . . . . . . . . . . . . . . . .
(continued)
E-----------------------------------|
B-----------------------------------|
G-----------------------------------|
D--7-7-7-7-7-7-7-7-7-7-7-7-7-7-7-7--|
A--7-7-7-7-7-7-7-7-7-7-7-7-7-7-7-7--|
E--5-5-5-5-5-5-5-5-5-5-5-5-5-5-5-5--|
   . . . . . . . . . . . . . . . .
(continued)
E---------------------------------------|
B---------------------------------------|
G---------------------------------------|
D--9-9-9-9-9-9-9-9-9-9-9-9--7-5-3--3~~--|
A--9-9-9-9-9-9-9-9-9-9-9-9--7-5-3--3~~--|
E--7-7-7-7-7-7-7-7-7-7-7-7--5-3-1--1~~--|
   . . . . . . . . . . . .  . . .

----------------------------------------------------------------------------

TRACK NO. 5 - HALLOWEEN


Guitar 1: Bill Casey (Drop D)
Guitar 2: Billy Sandland (Drop D)


INTRO:

Guitar 1
E------5-----5----------5-----5------|
B----3-----3-----3----3-----3-----3--|
G--2-----2-----2----3-----3-----3----| 5x
D------------------------------------|
A------------------------------------|
D------------------------------------|

After 2 times above, Guitar 2 comes in with:

Guitar 2
E------------------------------------|
B------------------------------------|
G--2-2-2-2-2-2-2-2--3-3-3-3-3-3-3-3--| 3x
D--0-0-0-0-0-0-0-0--x-x-x-x-x-x-x-x--|
A--0-0-0-0-0-0-0-0--1-1-1-1-1-1-1-1--|
D--0-0-0-0-0-0-0-0-------------------|

then

Guitar 1
E------5-----5----------5-----------------|
B----3-----3-----3----3-------------------|
G--2-----2-----2----3-----3---------------|
D-----------------------------------------|
A----------------------------Pickslide----|
D----------------------------Pickslide----|

Guitar 2
E------------------------------------------|
B------------------------------------------|
G--2-2-2-2-2-2-2-2--3-3-3-3----------------|
D--0-0-0-0-0-0-0-0--x-x-x-x----------------|
A--0-0-0-0-0-0-0-0--1-1-1-1---Pickslide----|
D--0-0-0-0-0-0-0-0------------Pickslide----|


VERSE: (Guitar 2 - palm mute x’s)

Guitar 1: (Tremolo picking)
E-----------------------------------------------|
B-----------------------------------------------|
G----7------9-----10-----9-----10-----9-----5---| 2x
D--(16x)--(16x)--(16x)--(6x)--(4x)--(4x)--(2x)--|
A-----------------------------------------------|
D-----------------------------------------------|

Guitar 2:
E---------------------------------------------------------------|
B---------------------------------------------------------------|
G---------------------------------------------------------------|
D--7-xxxx-7-xxxx-7-xx-9-xxxx-9-xxxx-9-xx-10-xxxx-10-xxxx-10-xx--|
A--5-xxxx-5-xxxx-5-xx-7-xxxx-7-xxxx-7-xx--8-xxxx--8-xxxx--8-xx--|
D--5-xxxx-5-xxxx-5-xx-7-xxxx-7-xxxx-7-xx--8-xxxx--8-xxxx--8-xx--|
(continued)
E-----------------------|
B-----------------------|
G-----------------------| 2x
D--9-xxxx-10-xx-9-xx-5--|
A--7-xxxx--8-xx-7-xx-3--|
D--7-xxxx--8-xx-7-xx-3--|


Guitar 1:
E-----------------------------------------------|
B-----------------------------------------------|
G----7------9-----10-----9-----10-----9-----5---| 2x
D----x------x------x-----x------x-----x-----x---|
A----5------7------8-----7------8-----7-----3---|
D--(16x)--(16x)--(16x)--(8x)--(4x)--(4x)--(4x)--|

Guitar 2:
E---------------------------------------------------------------|
B---------------------------------------------------------------|
G---------------------------------------------------------------|
D--7-xxxx-7-xxxx-7-xx-9-xxxx-9-xxxx-9-xx-10-xxxx-10-xxxx-10-xx--|
A--5-xxxx-5-xxxx-5-xx-7-xxxx-7-xxxx-7-xx--8-xxxx--8-xxxx--8-xx--|
D--5-xxxx-5-xxxx-5-xx-7-xxxx-7-xxxx-7-xx--8-xxxx--8-xxxx--8-xx--|
(continued)
E-----------------------|
B-----------------------|
G-----------------------| 2x
D--9-xxxx-10-xx-9-xx-5--|
A--7-xxxx--8-xx-7-xx-3--|
D--7-xxxx--8-xx-7-xx-3--|


CHORUS:

Guitar 1:
E----------------------------------------------|
B----------------------------------------------|
G-------9/10\9-------6~-------9/10\9-------3~--| 4x
D--00-0-x/-x\x--00-0-x~--00-0-x/-x\x--0000-x~--|
A--00-0-7/-8\7--00-0-4~--00-0-7/-8\7--0000-1~--|
D--00-0---------00-0-----00-0---------0000-----|
   .. .         .. .     .. .         ....

Guitar 2:
E--------------------------------------|
B-------9~-------9~-------9~-------9~--|
G-------7~-------7~-------7~-------7~--| 4x
D--00-0-6~--00-0-6~--00-0-6~--0000-6~--|
A--00-0-----00-0-----00-0-----0000-----|
D--00-0-----00-0-----00-0-----0000-----|
   .. .     .. .     .. .     ....


Guitar 1:
E----------------------------------------------|
B----------------------------------------------|
G-------9/10\9-------6~-------9/10\9-------3~--| 4x
D--00-0-x/-x\x--00-0-x~--00-0-x/-x\x--0000-x~--|
A--00-0-7/-8\7--00-0-4~--00-0-7/-8\7--0000-1~--|
D--00-0---------00-0-----00-0---------0000-----|

Guitar 2:
E--------------------------------------|
B-------9~-------9~-------9~-------9~--|
G-------7~-------7~-------7~-------7~--| 4x
D--00-0-6~--00-0-6~--00-0-6~--0000-6~--|
A--00-0-----00-0-----00-0-----0000-----|
D--00-0-----00-0-----00-0-----0000-----|


INTERLUDE:

Guitar 1:
E------------------------------------|
B------------------------------------|
G--12-9----12-9----11-------11-------|
D-------9-------9-----12-9-----12-9--|
A------------------------------------|
D------------------------------------|
(continued)
E------------------------------------|
B--12--------------------------------|
G-----9----12-9----11-------11-------|
D-------9-------9-----12-9-----12-9--|
A------------------------------------|
D------------------------------------|

Guitar 2:
E-------------------------|
B-------------------------|
G--12~---12~---11~---11~--| 2x
D---x-----x-----x-----x---|
A--10~---10~----9~----9~--|
D-------------------------|


VERSE 2:

Guitar 1: (Tremolo picking)
E-----------------------------------------------|
B-----------------------------------------------|
G----7------9-----10-----9-----10-----9-----5---| 2x
D--(16x)--(16x)--(16x)--(6x)--(4x)--(4x)--(2x)--|
A-----------------------------------------------|
D-----------------------------------------------|

Guitar 2:
E---------------------------------------------------------------|
B---------------------------------------------------------------|
G---------------------------------------------------------------|
D--7-xxxx-7-xxxx-7-xx-9-xxxx-9-xxxx-9-xx-10-xxxx-10-xxxx-10-xx--|
A--5-xxxx-5-xxxx-5-xx-7-xxxx-7-xxxx-7-xx--8-xxxx--8-xxxx--8-xx--|
D--5-xxxx-5-xxxx-5-xx-7-xxxx-7-xxxx-7-xx--8-xxxx--8-xxxx--8-xx--|
(continued)
E-----------------------|
B-----------------------|
G-----------------------| 2x
D--9-xxxx-10-xx-9-xx-5--|
A--7-xxxx--8-xx-7-xx-3--|
D--7-xxxx--8-xx-7-xx-3--|


Guitar 1:
E-----------------------------------------------|
B-----------------------------------------------|
G----7------9-----10-----9-----10-----9-----5---| 2x
D----x------x------x-----x------x-----x-----x---|
A----5------7------8-----7------8-----7-----3---|
D--(16x)--(16x)--(16x)--(8x)--(4x)--(4x)--(4x)--|

Guitar 2:
E---------------------------------------------------------------|
B---------------------------------------------------------------|
G---------------------------------------------------------------|
D--7-xxxx-7-xxxx-7-xx-9-xxxx-9-xxxx-9-xx-10-xxxx-10-xxxx-10-xx--|
A--5-xxxx-5-xxxx-5-xx-7-xxxx-7-xxxx-7-xx--8-xxxx--8-xxxx--8-xx--|
D--5-xxxx-5-xxxx-5-xx-7-xxxx-7-xxxx-7-xx--8-xxxx--8-xxxx--8-xx--|
(continued)
E-----------------------|
B-----------------------|
G-----------------------| 2x
D--9-xxxx-10-xx-9-xx-5--|
A--7-xxxx--8-xx-7-xx-3--|
D--7-xxxx--8-xx-7-xx-3--|


CHORUS:

Guitar 1:
E----------------------------------------------|
B----------------------------------------------|
G-------9/10\9-------6~-------9/10\9-------3~--| 4x
D--00-0-x/-x\x--00-0-x~--00-0-x/-x\x--0000-x~--|
A--00-0-7/-8\7--00-0-4~--00-0-7/-8\7--0000-1~--|
D--00-0---------00-0-----00-0---------0000-----|
   .. .         .. .     .. .         ....

Guitar 2:
E--------------------------------------|
B-------9~-------9~-------9~-------9~--|
G-------7~-------7~-------7~-------7~--| 4x
D--00-0-6~--00-0-6~--00-0-6~--0000-6~--|
A--00-0-----00-0-----00-0-----0000-----|
D--00-0-----00-0-----00-0-----0000-----|
   .. .     .. .     .. .     ....


Guitar 1:
E----------------------------------------------|
B----------------------------------------------|
G-------9/10\9-------6~-------9/10\9-------3~--| 2x
D--00-0-x/-x\x--00-0-x~--00-0-x/-x\x--0000-x~--|
A--00-0-7/-8\7--00-0-4~--00-0-7/-8\7--0000-1~--|
D--00-0---------00-0-----00-0---------0000-----|

Guitar 2:
E--------------------------------------|
B-------9~-------9~-------9~-------9~--|
G-------7~-------7~-------7~-------7~--| 2x
D--00-0-6~--00-0-6~--00-0-6~--0000-6~--|
A--00-0-----00-0-----00-0-----0000-----|
D--00-0-----00-0-----00-0-----0000-----|


OUTRO:

BOTH GUITARS:
E--------------------------------------------|
B--------------------------------------------|
G-------7~-------9~-------10~-------12-10-9--| 2x
D--00-0-x---00-0-x---00-0--x---00-0--x--x-x--|
A--00-0-5~--00-0-7~--00-0--8~--00-0-10--8-7--|
D--00-0-----00-0-----00-0------00-0----------|
   .. .     .. .     .. .      .. .
(continued)
E------------------------------------------------------|
B------------------------------------------------------|
G-------7777-------9999--------10101010-------12-10-9--| 2x
D--00-0-xxxx--00-0-xxxx---00-0--x-x-x-x--00-0--x--x-x--|
A--00-0-5555--00-0-7777---00-0--8-8-8-8--00-0-10--8-7--|
D--00-0-------00-0--------00-0-----------00-0----------|
   .. .       .. .        .. .           .. .
(continued)
E------------------------------------------------------|
B------------------------------------------------------|
G-------7777-------9999--------10101010-------12-10-9--| 2x
D--00-0-xxxx--00-0-xxxx---00-0--x-x-x-x--00-0--x--x-x--|
A--00-0-5555--00-0-7777---00-0--8-8-8-8--00-0-10--8-7--|
D--00-0-------00-0--------00-0-----------00-0----------|
(continued)
E-----------------------------------------------------|
B-----------------------------------------------------|
G-------7777-------9999-------10101010-------12-10-9--| 2x
D--0000-xxxx--0000-xxxx--0000--x-x-x-x--0000--x--x-x--|
A--0000-5555--0000-7777--0000--8-8-8-8--0000-10--8-7--|
D--0000-------0000-------0000-----------0000----------|
(continued)
E----------|
B----------|
G--10~~~~--|
D---x------|
A---8~~~~--|
D----------|

----------------------------------------------------------------------------

TRACK NO. 7 - YOUR LAST GOODBYE (SEALED WITH SORROW)


Guitar 1: Bill Casey (Standard)
Guitar 2: Billy Sandland (Standard)
Guitar 3: Mike McHoul (Drop D)


INTRO:

Guitar 1:
E-----------------------------------|
B-----------------------------------|
G------4-------4-------4-------4----|
D----4---4---4---4---4---4---4---4--|
A--2-------2-------1-------1--------|
E-----------------------------------|
(continued)
E-----------------------------------|
B-----------------------------------|
G------4-------4-------4-------4----| 2x
D----4---4---4---4---4---4---4---4--|
A-----------------------------------|
E--4-------4-------2-------2--------|


VERSE:

Guitar 1:
E-----------------------------------|
B-----------------------------------|
G------4-------4-------4-------4----|
D----4---4---4---4---4---4---4---4--|
A--2-------2-------1-------1--------|
E-----------------------------------|
(continued)
E-----------------------------------|
B-----------------------------------|
G------4-------4-------4-------4----| 4x
D----4---4---4---4---4---4---4---4--|
A-----------------------------------|
E--4-------4-------2-------2--------|

Guitar 2:
E--------------------------------------|
B--------------------------------------|
G--------------------------------------| 2x
D--9--9--9--8--9--8--6--6--6--4--6--8--|
A--------------------------------------|
E--------------------------------------|
(continued)
E-----------------------------------------------|
B-----------------------------------------------|
G-----------------------------------------------| 2x
D--9--9--9--11--11--11--13--13--13--11--13--11--|
A-----------------------------------------------|
E-----------------------------------------------|

Guitar 3:
E-----------------------------------|
B-----------------------------------|
G------4-------4-------4-------4----|
D----4---4---4---4---4---4---4---4--|
A--2-------2-------1-------1--------|
D-----------------------------------|
(continued)
E-----------------------------------|
B-----------------------------------|
G------4-------4-------4-------4----| 4x
D----4---4---4---4---4---4---4---4--|
A-----------------------------------|
D--6-------6-------4-------4--------|


CHORUS: (Figure out strumming)

Guitar 1:
E-------------------------------------|
B-------------------------------------|
G--9-9-9999-9-9--7-7-77--101010-9999--|
D--x-x-xxxx-x-x--x-x-xx---x-x-x-xxxx--|
A--7-7-7777-7-7--5-5-55---8-8-8-7777--|
E-------------------------------------|
(continued)
E------------------------------------------------|
B------------------------------------------------|
G--7-7-7777-5-5-5555--10-10-101010-10-10-101010--|
D--x-x-xxxx-x-x-xxxx---x--x--x-x-x--x--x--x-x-x--|
A--5-5-5555-3-3-3333---8--8--8-8-8--8--8--8-8-8--|
E------------------------------------------------|

Guitar 2:
E----------------------------------------------------------|
B--5-5-5555-5-5--5-5-5555-5-5--6-6-6666-6-6--6-6-6666-6-6--|
G--x-x-xxxx-x-x--x-x-xxxx-x-x--x-x-xxxx-x-x--x-x-xxxx-x-x--|
D--x-x-xxxx-x-x--x-x-xxxx-x-x--x-x-xxxx-x-x--x-x-xxxx-x-x--|
A--3-3-3333-3-3--2-2-2222-2-2--3-3-3333-3-3--4-4-4444-4-4--|
E----------------------------------------------------------|


Guitar 1:
E-------------------------------------|
B-------------------------------------|
G--9-9-9999-9-9--7-7-77--101010-9999--|
D--x-x-xxxx-x-x--x-x-xx---x-x-x-xxxx--|
A--7-7-7777-7-7--5-5-55---8-8-8-7777--|
E-------------------------------------|
(continued)
E----------------------------------------|
B----------------------------------------|
G--7-7-7777-5-5-5555--10-10-10101010~~~--|
D--x-x-xxxx-x-x-xxxx---x--x--x-x-x-x~~~--|
A--5-5-5555-3-3-3333---8--8--8-8-8-8~~~--|
E----------------------------------------|

Guitar 2:
E---------------------------------------------------------|
B--5-5-5555-5-5--5-5-5555-5-5--6-6-6666-6-6--6-6-6666~~~--|
G--x-x-xxxx-x-x--x-x-xxxx-x-x--x-x-xxxx-x-x--x-x-xxxx~~~--|
D--x-x-xxxx-x-x--x-x-xxxx-x-x--x-x-xxxx-x-x--x-x-xxxx~~~--|
A--3-3-3333-3-3--2-2-2222-2-2--3-3-3333-3-3--4-4-4444~~~--|
E---------------------------------------------------------|


VERSE:

Guitar 1:
E-----------------------------------|
B-----------------------------------|
G------4-------4-------4-------4----|
D----4---4---4---4---4---4---4---4--|
A--2-------2-------1-------1--------|
E-----------------------------------|
(continued)
E-----------------------------------|
B-----------------------------------|
G------4-------4-------4-------4----| 4x
D----4---4---4---4---4---4---4---4--|
A-----------------------------------|
E--4-------4-------2-------2--------|

Guitar 2:
E--------------------------------------|
B--------------------------------------|
G--------------------------------------| 2x
D--9--9--9--8--9--8--6--6--6--4--6--8--|
A--------------------------------------|
E--------------------------------------|
(continued)
E-----------------------------------------------|
B-----------------------------------------------|
G-----------------------------------------------| 2x
D--9--9--9--11--11--11--13--13--13--11--13--11--|
A-----------------------------------------------|
E-----------------------------------------------|

Guitar 3:
E-----------------------------------|
B-----------------------------------|
G------4-------4-------4-------4----|
D----4---4---4---4---4---4---4---4--|
A--2-------2-------1-------1--------|
D-----------------------------------|
(continued)
E-----------------------------------|
B-----------------------------------|
G------4-------4-------4-------4----| 4x
D----4---4---4---4---4---4---4---4--|
A-----------------------------------|
D--6-------6-------4-------4--------|


CHORUS: (Figure out strumming)

Guitar 1:
E-------------------------------------|
B-------------------------------------|
G--9-9-9999-9-9--7-7-77--101010-9999--|
D--x-x-xxxx-x-x--x-x-xx---x-x-x-xxxx--|
A--7-7-7777-7-7--5-5-55---8-8-8-7777--|
E-------------------------------------|
(continued)
E------------------------------------------------|
B------------------------------------------------|
G--7-7-7777-5-5-5555--10-10-101010-10-10-101010--| 3x
D--x-x-xxxx-x-x-xxxx---x--x--x-x-x--x--x--x-x-x--|
A--5-5-5555-3-3-3333---8--8--8-8-8--8--8--8-8-8--|
E------------------------------------------------|

Guitar 2:
E----------------------------------------------------------|
B--5-5-5555-5-5--5-5-5555-5-5--6-6-6666-6-6--6-6-6666-6-6--|
G--x-x-xxxx-x-x--x-x-xxxx-x-x--x-x-xxxx-x-x--x-x-xxxx-x-x--| 3x
D--x-x-xxxx-x-x--x-x-xxxx-x-x--x-x-xxxx-x-x--x-x-xxxx-x-x--|
A--3-3-3333-3-3--2-2-2222-2-2--3-3-3333-3-3--4-4-4444-4-4--|
E----------------------------------------------------------|


Guitar 1:
E-------------------------------------|
B-------------------------------------|
G--9-9-9999-9-9--7-7-77--101010-9999--|
D--x-x-xxxx-x-x--x-x-xx---x-x-x-xxxx--|
A--7-7-7777-7-7--5-5-55---8-8-8-7777--|
E-------------------------------------|
(continued)
E----------------------------------------|
B----------------------------------------|
G--7-7-7777-5-5-5555--10-10-10101010~~~--|
D--x-x-xxxx-x-x-xxxx---x--x--x-x-x-x~~~--|
A--5-5-5555-3-3-3333---8--8--8-8-8-8~~~--|
E----------------------------------------|

Guitar 2:
E---------------------------------------------------------|
B--5-5-5555-5-5--5-5-5555-5-5--6-6-6666-6-6--6-6-6666~~~--|
G--x-x-xxxx-x-x--x-x-xxxx-x-x--x-x-xxxx-x-x--x-x-xxxx~~~--|
D--x-x-xxxx-x-x--x-x-xxxx-x-x--x-x-xxxx-x-x--x-x-xxxx~~~--|
A--3-3-3333-3-3--2-2-2222-2-2--3-3-3333-3-3--4-4-4444~~~--|
E---------------------------------------------------------|


OUTRO:

Guitar 1+2:
E----------------------------------------------------------|
B----------------------------------------------------------|
G--6-6-6666-6-6--8-8-8888-8-8--3-3-3333-3-3--5-5-5555-5-5--| 3x
D--x-x-xxxx-x-x--x-x-xxxx-x-x--x-x-xxxx-x-x--x-x-xxxx-x-x--|
A--4-4-4444-4-4--6-6-6666-6-6--1-1-1111-1-1--3-3-3333-3-3--|
E----------------------------------------------------------|

Guitar 3:
E----------------------------------------------------------|
B----------------------------------------------------------|
G--6-6-6666-6-6--6-6-6666-6-6--6-6-6666-6-6--6-6-6666-6-6--|
D--6-6-6666-6-6--6-6-6666-6-6--6-6-6666-6-6--6-6-6666-6-6--|
A--4-4-4444-4-4--3-3-3333-3-3--x-x-xxxx-x-x--x-x-xxxx-x-x--|
D------------------------------8-8-8888-8-8--6-6-6666-6-6--|
(continued)
E----------------------------------------------------------|
B----------------------------------------------------------|
G--6-6-6666-6-6--6-6-6666-6-6--6-6-6666-6-6--6-6-6666-6-6--| 3x
D--6-6-6666-6-6--6-6-6666-6-6--6-6-6666-6-6--6-6-6666-6-6--|
A--x-x-xxxx-x-x--x-x-xxxx-x-x--x-x-xxxx-x-x--x-x-xxxx-x-x--|
D--4-4-4444-4-4--3-3-3333-3-3--1-1-1111-1-1--4-4-4444-4-4--|


Guitar 1+2:
E----------------------------------------------------------|
B----------------------------------------------------------|
G--6-6-6666-6-6--8-8-8888-8-8--3-3-3333-3-3--5-5-55555~~~--|
D--x-x-xxxx-x-x--x-x-xxxx-x-x--x-x-xxxx-x-x--x-x-xxxxx~~~--|
A--4-4-4444-4-4--6-6-6666-6-6--1-1-1111-1-1--3-3-33333~~~--|
E----------------------------------------------------------|

Guitar 3:
E----------------------------------------------------------|
B----------------------------------------------------------|
G--6-6-6666-6-6--6-6-6666-6-6--6-6-6666-6-6--6-6-6666-6-6--|
D--6-6-6666-6-6--6-6-6666-6-6--6-6-6666-6-6--6-6-6666-6-6--|
A--4-4-4444-4-4--3-3-3333-3-3--x-x-xxxx-x-x--x-x-xxxx-x-x--|
D------------------------------8-8-8888-8-8--6-6-6666-6-6--|
(continued)
E----------------------------------------------------------|
B----------------------------------------------------------|
G--6-6-6666-6-6--6-6-6666-6-6--6-6-6666-6-6--6-6-66666~~~--|
D--6-6-6666-6-6--6-6-6666-6-6--6-6-6666-6-6--6-6-66666~~~--|
A--x-x-xxxx-x-x--x-x-xxxx-x-x--x-x-xxxx-x-x--x-x-xxxxx~~~--|
D--4-4-4444-4-4--3-3-3333-3-3--1-1-1111-1-1--4-4-44444~~~--|

----------------------------------------------------------------------------

THE LAST APPARITION


Guitar 1: Bill Casey
Guitar 2: Billy Sandland
Guitar 3: Mike McHoul


CHORUS: (figure out strumming)

Guitar 1
E----------------------------------------|
B----------------------------------------|
G----9----7---9/11\9\7----7---9/11\9\7---|
D----x----x---x/-x\x\x----x---x/-x\x\x---|
A----7----5---7/-9\7\5----5---7/-9\7\5---|
E--(12x)-(4x)-----------(16x)------------|
(continued)
E----------------------------------------|
B----------------------------------------|
G----9---11---7/9--9/11--11/12--12/14----|
D----x----x---x/x--x/-x---x/-x---x/-x----|
A----7----9---5/7--7/-9---9/10--10/12----|
E--(8x)-(8x)-----------------------------|
(continued)
E-----------------------------|
B-----------------------------|
G--14\12--12\11--11\9--9/11---| 2x
D---x\-x---x\-x---x\x--x/-x---|
A--12\10--10\-9---9\7--7/-9---|
E-----------------------------|

Guitar 2
E------------------------------------|
B------------------------------------|
G--7-7-7-7-7-7-7-7-7-7-7-7-7-7-7-7---|
D--7-7-7-7-7-7-7-7-7-7-7-7-7-7-7-7---|
A--5-5-5-5-5-5-5-5-5-5-5-5-5-5-5-5---|
E------------------------------------|
(continued)
E------------------------------------|
B------------------------------------|
G--4-4-4-4-4-4-4-4-4-4-4-4-4-4-4-4---|
D--4-4-4-4-4-4-4-4-4-4-4-4-4-4-4-4---|
A--2-2-2-2-2-2-2-2-2-2-2-2-2-2-2-2---|
E------------------------------------|
(continued)
E------------------------------------|
B------------------------------------|
G------------------------------------|
D--7-7-7-7-7-7-7-7-7-7-7-7-7-7-7-7---|
A--7-7-7-7-7-7-7-7-7-7-7-7-7-7-7-7---|
E--5-5-5-5-5-5-5-5-5-5-5-5-5-5-5-5---|
(continued)
E------------------------------------|
B------------------------------------|
G------------------------------------| 2x
D--5-5-5-5-5-5-5-5-7-7-7-7-7-7-7-7---|
A--5-5-5-5-5-5-5-5-7-7-7-7-7-7-7-7---|
E--3-3-3-3-3-3-3-3-5-5-5-5-5-5-5-5---|

Guitar 3
E--------------------------|
B--------------------------|
G--------------------------| 2x
D--9~~~--7~~~--5~~~--7~~~--|
A--9~~~--7~~~--5~~~--7~~~--|
E--7~~~--5~~~--3~~~--7~~~--|


BREAKDOWN:

Guitar 1
E--------------------------------------------|
B--------------------------------------------|
G--------------------------------------------| 4x
D--------------------------------------------|
A--7-10-9-10----10-9-10---10-9-10---10-9-10--|
E------------10---------8---------7----------|

Guitar 2
E---------------------------------------------|
B---------------------------------------------|
G---------------------------------------------| 2x
D---------------------------------------------|
A----10-9-10----10-9-10---10-9-10-12-10-9-10--|
E---------------------------------------------|
(continued)
E--------------------------------------------|
B--------------------------------------------|
G--------------------------------------------| 2x
D---------------------------------9----------|
A----10-9-10----10-9-10---10-9-10---10-9-10--|
E--------------------------------------------|

Guitar 3
E--------------------------------------------------------------------|
B--------------------------------------------------------------------|
G--4-4-4-4-4-4-4-4-4-4-4-4-4-4-4-4--7-7-7-7-7-7-7-7-7-7-7-7-7-7-7-7--|
D--x-x-x-x-x-x-x-x-x-x-x-x-x-x-x-x--x-x-x-x-x-x-x-x-x-x-x-x-x-x-x-x--|
A--2-2-2-2-2-2-2-2-2-2-2-2-2-2-2-2--5-5-5-5-5-5-5-5-5-5-5-5-5-5-5-5--|
E--------------------------------------------------------------------|
(continued)
E---------------------------------------------------------------------------|
B---------------------------------------------------------------------------|
G--9-9-9-9-9-9-9-9-9-9-9-9-9-9-9-9-11-11-11-11-11-11-11-11-4-4-4-4-7-7-7-7--|
D--x-x-x-x-x-x-x-x-x-x-x-x-x-x-x-x--x--x--x--x--x--x--x--x-x-x-x-x-x-x-x-x--|
A--7-7-7-7-7-7-7-7-7-7-7-7-7-7-7-7--9--9--9--9--9--9--9--9-2-2-2-2-5-5-5-5--|
E---------------------------------------------------------------------------|


VERSE:

Guitar 1
E----------------------------------------------------------------------|
B----------------------------------------------------------------------|
G--4-4-4-4-4-4-4-4--6-6-6-6-6-6-6-6------------------------------------|
D--4-4-4-4-4-4-4-4--6-6-6-6-6-6-6-6--4-4-4-4-4-4-4-4--7-7-7-7-7-7-7-7--|
A--2-2-2-2-2-2-2-2--4-4-4-4-4-4-4-4--4-4-4-4-4-4-4-4--7-7-7-7-7-7-7-7--|
E------------------------------------2-2-2-2-2-2-2-2--5-5-5-5-5-5-5-5--|
(continued)

E----------------------------------------------------------------------|
B----------------------------------------------------------------------|
G--4-4-4-4-4-4-4-4--6-6-6-6-6-6-6-6------------------------------------|
D--4-4-4-4-4-4-4-4--6-6-6-6-6-6-6-6--2-2-2-2-2-2-2-2--4-4-4-4-4-4-4-4--|
A--2-2-2-2-2-2-2-2--4-4-4-4-4-4-4-4--2-2-2-2-2-2-2-2--4-4-4-4-4-4-4-4--|
E------------------------------------0-0-0-0-0-0-0-0--2-2-2-2-2-2-2-2--|


Guitar 2
E----------------------------------------------------------------|
B----------------------------------------------------------------|
G-----------------------------------------------------9-8-6-4-2--| 2x
D-----------------------------------------------------x-x-x-x-x--|
A-----------------------------------------------------7-6-4-2-0--|
E----------------------------------------------------------------|

Guitar 3
E--------------------------|
B--------------------------|
G--------------------------|
D--6~~~--8~~~--4~~~--7~~~--|
A--6~~~--8~~~--4~~~--7~~~--|
E--4~~~--6~~~--2~~~--5~~~--|
(continued)
E--------------------------|
B--------------------------|
G--------------------------|
D--6~~~--8~~~--2~~~--4~~~--|
A--6~~~--8~~~--2~~~--4~~~--|
E--4~~~--6~~~--0~~~--2~~~--|


INTERLUDE

Guitar 1
E-----------------------------------------------|
B-----------------------------------------------|
G--6-6-666666/7-7-777777/8-8-888888\7-7-777777--| 2x
D--x-x-xxxxxx/x-x-xxxxxx/x-x-xxxxxx\x-x-xxxxxx--|
A--4-4-444444/5-5-555555/6-6-666666\5-5-555555--|
E-----------------------------------------------|

Guitar 2
E-----------------------------------------------|
B--5-5-555555/7-7-777777/9-9-999999\7-7-777777--|
G--6-6-666666/8-8-888888/9-9-999999\8-8-888888--| 2x
D-----------------------------------------------|
A-----------------------------------------------|
E-----------------------------------------------|


CHORUS: (figure out strumming)

Guitar 1
E----------------------------------------|
B----------------------------------------|
G----9----7---9/11\9\7----7---9/11\9\7---|
D----x----x---x/-x\x\x----x---x/-x\x\x---|
A----7----5---7/-9\7\5----5---7/-9\7\5---|
E--(12x)-(4x)-----------(16x)------------|
(continued)


E----------------------------------------|
B----------------------------------------|
G----9---11---7/9--9/11--11/12--12/14----|
D----x----x---x/x--x/-x---x/-x---x/-x----|
A----7----9---5/7--7/-9---9/10--10/12----|
E--(8x)-(8x)-----------------------------|
(continued)
E-----------------------------|
B-----------------------------|
G--14\12--12\11--11\9--9/11---| 2x
D---x\-x---x\-x---x\x--x/-x---|
A--12\10--10\-9---9\7--7/-9---|
E-----------------------------|

Guitar 2
E------------------------------------|
B------------------------------------|
G--7-7-7-7-7-7-7-7-7-7-7-7-7-7-7-7---|
D--7-7-7-7-7-7-7-7-7-7-7-7-7-7-7-7---|
A--5-5-5-5-5-5-5-5-5-5-5-5-5-5-5-5---|
E------------------------------------|
(continued)
E------------------------------------|
B------------------------------------|
G--4-4-4-4-4-4-4-4-4-4-4-4-4-4-4-4---|
D--4-4-4-4-4-4-4-4-4-4-4-4-4-4-4-4---|
A--2-2-2-2-2-2-2-2-2-2-2-2-2-2-2-2---|
E------------------------------------|
(continued)
E------------------------------------|
B------------------------------------|
G------------------------------------|
D--7-7-7-7-7-7-7-7-7-7-7-7-7-7-7-7---|
A--7-7-7-7-7-7-7-7-7-7-7-7-7-7-7-7---|
E--5-5-5-5-5-5-5-5-5-5-5-5-5-5-5-5---|
(continued)
E------------------------------------|
B------------------------------------|
G------------------------------------| 2x
D--5-5-5-5-5-5-5-5-7-7-7-7-7-7-7-7---|
A--5-5-5-5-5-5-5-5-7-7-7-7-7-7-7-7---|
E--3-3-3-3-3-3-3-3-5-5-5-5-5-5-5-5---|

Guitar 3
E--------------------------|
B--------------------------|
G--------------------------| 2x
D--9~~~--7~~~--5~~~--7~~~--|
A--9~~~--7~~~--5~~~--7~~~--|
E--7~~~--5~~~--3~~~--7~~~--|


VERSE:

Guitar 1
E----------------------------------------------------------------------|
B----------------------------------------------------------------------|
G--4-4-4-4-4-4-4-4--6-6-6-6-6-6-6-6------------------------------------|
D--4-4-4-4-4-4-4-4--6-6-6-6-6-6-6-6--4-4-4-4-4-4-4-4--7-7-7-7-7-7-7-7--|
A--2-2-2-2-2-2-2-2--4-4-4-4-4-4-4-4--4-4-4-4-4-4-4-4--7-7-7-7-7-7-7-7--|
E------------------------------------2-2-2-2-2-2-2-2--5-5-5-5-5-5-5-5--|
(continued)

E----------------------------------------------------------------------|
B----------------------------------------------------------------------|
G--4-4-4-4-4-4-4-4--6-6-6-6-6-6-6-6------------------------------------|
D--4-4-4-4-4-4-4-4--6-6-6-6-6-6-6-6--2-2-2-2-2-2-2-2--4-4-4-4-4-4-4-4--|
A--2-2-2-2-2-2-2-2--4-4-4-4-4-4-4-4--2-2-2-2-2-2-2-2--4-4-4-4-4-4-4-4--|
E------------------------------------0-0-0-0-0-0-0-0--2-2-2-2-2-2-2-2--|


Guitar 2
E----------------------------------------------------------------|
B----------------------------------------------------------------|
G-----------------------------------------------------9-8-6-4-2--| 2x
D-----------------------------------------------------x-x-x-x-x--|
A-----------------------------------------------------7-6-4-2-0--|
E----------------------------------------------------------------|

Guitar 3
E--------------------------|
B--------------------------|
G--------------------------|
D--6~~~--8~~~--4~~~--7~~~--|
A--6~~~--8~~~--4~~~--7~~~--|
E--4~~~--6~~~--2~~~--5~~~--|
(continued)
E--------------------------|
B--------------------------|
G--------------------------|
D--6~~~--8~~~--2~~~--4~~~--|
A--6~~~--8~~~--2~~~--4~~~--|
E--4~~~--6~~~--0~~~--2~~~--|


[Repeat Entire Verse Again]


BREAKDOWN:

Guitar 1
E--------------------------------------------|
B--------------------------------------------|
G--------------------------------------------| 4x
D--------------------------------------------|
A--7-10-9-10----10-9-10---10-9-10---10-9-10--|
E------------10---------8---------7----------|

Guitar 2
E---------------------------------------------|
B---------------------------------------------|
G---------------------------------------------| 2x
D---------------------------------------------|
A----10-9-10----10-9-10---10-9-10-12-10-9-10--|
E---------------------------------------------|
(continued)
E--------------------------------------------|
B--------------------------------------------|
G--------------------------------------------| 2x
D---------------------------------9----------|
A----10-9-10----10-9-10---10-9-10---10-9-10--|
E--------------------------------------------|


Guitar 3
E--------------------------------------------------------------------|
B--------------------------------------------------------------------|
G--4-4-4-4-4-4-4-4-4-4-4-4-4-4-4-4--7-7-7-7-7-7-7-7-7-7-7-7-7-7-7-7--|
D--x-x-x-x-x-x-x-x-x-x-x-x-x-x-x-x--x-x-x-x-x-x-x-x-x-x-x-x-x-x-x-x--|
A--2-2-2-2-2-2-2-2-2-2-2-2-2-2-2-2--5-5-5-5-5-5-5-5-5-5-5-5-5-5-5-5--|
E--------------------------------------------------------------------|
(continued)
E---------------------------------------------------------------------------|
B---------------------------------------------------------------------------|
G--9-9-9-9-9-9-9-9-9-9-9-9-9-9-9-9-11-11-11-11-11-11-11-11-4-4-4-4-7-7-7-7--|
D--x-x-x-x-x-x-x-x-x-x-x-x-x-x-x-x--x--x--x--x--x--x--x--x-x-x-x-x-x-x-x-x--|
A--7-7-7-7-7-7-7-7-7-7-7-7-7-7-7-7--9--9--9--9--9--9--9--9-2-2-2-2-5-5-5-5--|
E---------------------------------------------------------------------------|


OUTRO/FINAL BREAKDOWN:

Guitar 1
E--------------------------------------------|
B--------------------------------------------|
G--------------------------------------------| 4x
D--------------------------------------------|
A--7-10-9-10----10-9-10---10-9-10---10-9-10--|
E------------10---------8---------7----------|

Guitar 2
E---------------------------------------------|
B---------------------------------------------|
G---------------------------------------------| 2x
D---------------------------------------------|
A----10-9-10----10-9-10---10-9-10-12-10-9-10--|
E---------------------------------------------|
(continued)
E--------------------------------------------|
B--------------------------------------------|
G--------------------------------------------| 2x
D---------------------------------9----------|
A----10-9-10----10-9-10---10-9-10---10-9-10--|
E--------------------------------------------|

Guitar 3
E------------------------------------------------|
B------------------------------------------------|
G----12-11-12---12-11-12---12-11-12-14-12-11-12--| 2x
D------------------------------------------------|
A------------------------------------------------|
E------------------------------------------------|
(continued)
E------------------------------------------------|
B-----------------------------------12-----------|
G----12-11-12---12-11-12---12-11-12----12-11-12--| 2x
D------------------------------------------------|
A------------------------------------------------|
E------------------------------------------------|


----------------------------------------------------------------------------

THE BEGINNING OF IT ALL


Guitar 1: Bill Casey
Guitar 2: Billy Sandland
Guitar 3: Mike McHoul


INTRO:

Guitar 1
E------------------------------------|
B------------------------------------|
G------------------------------------|
D------------------------------------|
A--9-9-9-7-7-7-7-7-9-9b10r9-7-7-7-7--|
E------------------------------------|
(continued)
E------------------------------------|
B------------------------------------|
G------------------------------------| 2x
D------------------------------------|
A--9-9-9-7-7-7-7-7-5-4-5-7--7-7-7----|
E------------------------------------|

Guitar 2
E--------------------------|
B--------------------------|
G--------------------------|
D--xx--7~~--3~~--5~~--7~~--|
A--xx--7~~--3~~--5~~--7~~--|
E--xx--5~~--1~~--3~~--5~~--|
(continued)
E------------------------------|
B------------------------------|
G------9~~--5~~--7~~--9~~------|
D--xx--9~~--5~~--7~~--9~~--xx--|
A--xx--7~~--3~~--5~~--7~~--xx--|
E--xx----------------------xx--|

Guitar 3
E--------------------------|
B--------------------------|
G--------------------------|
D--xx--0~~--0~~--0~~--0~~--|
A--xx--0~~--0~~--0~~--0~~--|
E--xx--0~~--0~~--0~~--0~~--|
(continued)
E------------------------------|
B------------------------------|
G------------------------------|
D--xx--0~~--0~~--0~~--0~~--xx--|
A--xx--0~~--0~~--0~~--0~~--xx--|
E--xx--0~~--0~~--0~~--0~~--xx--|


SOLO 1:

Guitar 1
E--14---12--14-14b15r14-12--7-9-5--|
B-|Tremolo|------------------------|
G----------------------------------|
D----------------------------------|
A----------------------------------|
E----------------------------------|
(continued)
E--14---12---9-5-7-4-5-7-9~-|
B-|Tremolo|-----------------|
G---------------------------| 2x
D---------------------------|
A---------------------------|
E---------------------------|

Guitar 2
E-------------------------------|
B-|Tremolo|---------------------|
G---11--9---11b12r11-9--4-6-2---|
D-------------------------------|
A-------------------------------|
E-------------------------------|
(continued)
E---------------------------|
B-|Tremolo|-----------------|
G---11--9---6-2-4-1-2-4-6~--| 2x
D---------------------------|
A---------------------------|
E---------------------------|

Guitar 3
E-------------------------------|
B-|Tremolo|---------------------|
G---11--9---11b12r11-11-11-11---|
D----x--x----xb-xr-x--x--x--x---|
A----9--7----9b10r-9--9--9--9---|
E-------------------------------|
(continued)
E---------------------|
B-|Tremolo|-----------|
G---11--9---7-6-7-9~--| 2x
D----x--x---x-x-x-x~--|
A----9--7---5-4-5-7~--|
E---------------------|


VERSE:

Guitar 1
E-----------------------------------------|
B--------8-------8-------8----------------|
G--5-7-8---5-7-8---5-7-8---5-7-7b8r7------| 2x
D------------------------------------8~~--|
A-----------------------------------------|
E-----------------------------------------|
(continued)
E-----------------------------------------|
B--------8-------8-------8----------------|
G--5-7-8---5-7-8---5-7-8---5-7-7b8r7-7~~--| 2x
D-----------------------------------------|
A-----------------------------------------|
E-----------------------------------------|

Repeat entire thing

Guitar 2
E-----------------------------------|
B-----------------------------------|
G--5-5-5-5-5-5-5-5-5-5-5-5-5-5-5-5--|
D--5-5-5-5-5-5-5-5-5-5-5-5-5-5-5-5--|
A--3-3-3-3-3-3-3-3-3-3-3-3-3-3-3-3--|
E-----------------------------------|
(continued)
E-----------------------------------|
B-----------------------------------|
G--3-3-3-3-3-3-3-3-3-3-3-3-3-3-3-3--|
D--3-3-3-3-3-3-3-3-3-3-3-3-3-3-3-3--|
A--1-1-1-1-1-1-1-1-1-1-1-1-1-1-1-1--|
E-----------------------------------|
(continued)
E-----------------------------------|
B-----------------------------------|
G-----------------------------------|
D--5-5-5-5-5-5-5-5-5-5-5-5-5-5-5-5--|
A--5-5-5-5-5-5-5-5-5-5-5-5-5-5-5-5--|
E--3-3-3-3-3-3-3-3-3-3-3-3-3-3-3-3--|
(continued)
E-----------------------------------|
B-----------------------------------|
G-----------------------------------|
D--4-4-4-4-4-4-4-4-4-4-4-4-4-4-4-4--|
A--4-4-4-4-4-4-4-4-4-4-4-4-4-4-4-4--|
E--2-2-2-2-2-2-2-2-2-2-2-2-2-2-2-2--|


CHORUS:

Guitar 1
E------------------------------------|
B------------------------------------|
G--5-5-5-5-5-5-5-5-------------------|
D--5-5-5-5-5-5-5-5--------3----------|
A--3-3-3-3-3-3-3-3--3-5-6---6-5-3~~--|
E------------------------------------|
                    . . . . . . .
(continued)
E------------------------------------|
B------------------------------------|
G--3-3-3-3-3-3-3-3-------------------|
D--3-3-3-3-3-3-3-3--------3----------|
A--1-1-1-1-1-1-1-1--3-5-6---6-5-3~~--|
E------------------------------------|
                    . . . . . . .
(continued)
E------------------------------------|
B------------------------------------|
G--5-5-5-5-5-5-5-5-------------------|
D--5-5-5-5-5-5-5-5--------3----------|
A--3-3-3-3-3-3-3-3--3-5-6---6-5-3~~--|
E------------------------------------|
                    . . . . . . .
(continued)
E------------------------------------|
B------------------------------------|
G--5-5-5-5-5-5-5-5-------------------|
D--5-5-5-5-5-5-5-5--------3----------|
A--3-3-3-3-3-3-3-3--3-5-6---6-5-3~~--|
E------------------------------------|
                    . . . . . . .

Guitar 2
E-----------------------------------|
B-----------------------------------|
G--9-9-9-9-9-9-9-9-9-9-9-9-9-9-9-9--|
D--x-x-x-x-x-x-x-x-x-x-x-x-x-x-x-x--|
A--7-7-7-7-7-7-7-7-7-7-7-7-7-7-7-7--|
E-----------------------------------|
(continued)
E-----------------------------------|
B-----------------------------------|
G--7-7-7-7-7-7-7-7-7-7-7-7-7-7-7-7--|
D--x-x-x-x-x-x-x-x-x-x-x-x-x-x-x-x--|
A--5-5-5-5-5-5-5-5-5-5-5-5-5-5-5-5--|
E-----------------------------------|
(continued
E-----------------------------------|
B-----------------------------------|
G--9-9-9-9-9-9-9-9-9-9-9-9-9-9-9-9--|
D--x-x-x-x-x-x-x-x-x-x-x-x-x-x-x-x--|
A--7-7-7-7-7-7-7-7-7-7-7-7-7-7-7-7--|
E-----------------------------------|
(continued)
E----------------------------------------------------|
B----------------------------------------------------|
G--12-12-12-12-12-12-12-12--16-16-16-16-17-17-17-17--|
D---x--x--x--x--x--x--x--x---x--x--x--x--x--x--x--x--|
A--10-10-10-10-10-10-10-10--14-14-14-14-15-15-15-15--|
E----------------------------------------------------|

Guitar 1
E------------------------------------|
B------------------------------------|
G--5-5-5-5-5-5-5-5-------------------|
D--5-5-5-5-5-5-5-5--------3----------|
A--3-3-3-3-3-3-3-3--3-5-6---6-5-3~~--|
E------------------------------------|
 (continued)
E------------------------------------|
B------------------------------------|
G--3-3-3-3-3-3-3-3-------------------|
D--3-3-3-3-3-3-3-3--------3----------|
A--1-1-1-1-1-1-1-1--3-5-6---6-5-3~~--|
E------------------------------------|
(continued)
E------------------------------------|
B------------------------------------|
G--5-5-5-5-5-5-5-5-------------------|
D--5-5-5-5-5-5-5-5--------3----------|
A--3-3-3-3-3-3-3-3--3-5-6---6-5-3~~--|
E------------------------------------|
 (continued)
E------------------------------------|
B------------------------------------|
G--5-5-5-5-5-5-5-5-------------------|
D--5-5-5-5-5-5-5-5--------3----------|
A--3-3-3-3-3-3-3-3--3-5-6---6-5-3~~--|
E------------------------------------|

Guitar 2
E-----------------------------------|
B-----------------------------------|
G--9-9-9-9-9-9-9-9-9-9-9-9-9-9-9-9--|
D--x-x-x-x-x-x-x-x-x-x-x-x-x-x-x-x--|
A--7-7-7-7-7-7-7-7-7-7-7-7-7-7-7-7--|
E-----------------------------------|
(continued)
E-----------------------------------|
B-----------------------------------|
G--7-7-7-7-7-7-7-7-7-7-7-7-7-7-7-7--|
D--x-x-x-x-x-x-x-x-x-x-x-x-x-x-x-x--|
A--5-5-5-5-5-5-5-5-5-5-5-5-5-5-5-5--|
E-----------------------------------|
(continued
E-----------------------------------|
B-----------------------------------|
G--9-9-9-9-9-9-9-9-9-9-9-9-9-9-9-9--|
D--x-x-x-x-x-x-x-x-x-x-x-x-x-x-x-x--|
A--7-7-7-7-7-7-7-7-7-7-7-7-7-7-7-7--|
E-----------------------------------|
(continued)
E----------------------------------------------------|
B----------------------------------------------------|
G--12-12-12-12-12-12-12-12--16-16-16-16-17-17-17-17--|
D---x--x--x--x--x--x--x--x---x--x--x--x--x--x--x--x--|
A--10-10-10-10-10-10-10-10--14-14-14-14-15-15-15-15--|
E----------------------------------------------------|


SOLO 2:

Guitar 1
E------------------------------------|
B------------------------------------|
G-----5-7--7/9-7-5--7-5-7*b8*r7*--5--|
D--/7------------------|Harmonic|----|
A------------------------------------|
E------------------------------------|
(continued)
E--------------------------|
B--------------------------|
G--------------------------|
D---------7-9---------7-9--|
A--7-9-10------7-9-10------|
E--------------------------|
(continued)
E--------------------------------------------------------|
B------7-------------------------------------------------|
G--7-9---9-7--9-7-------/12--11-12-11-12--11--9-11-9-11--| This part only 4x
D-----------------10-9-----------------------------------|
A--------------------------------------------------------|
E--------------------------------------------------------|

Guitar 2: (figure out strumming -- pay attention to notes)
E----------------------------------------------|
B----------------------------------------------|
G--3-3-3-3-3--3-3-3-3-3--5-5-5-5-5--5-5-5-5-5--|
D--3-3-3-3-3--3-3-3-3-3--5-5-5-5-5--5-5-5-5-5--|
A--1-1-1-1-1--1-1-1-1-1--3-3-3-3-3--3-3-3-3-3--|
E----------------------------------------------|
(continued)
E----------------------------------------------|
B----------------------------------------------|
G----------------------------------------------|
D--5-5-5-5-5--5-5-5-5-5--9-9-9-9-9--9-9-9-9-9--|
A--3-3-3-3-3--3-3-3-3-3--7-7-7-7-7--7-7-7-7-7--|
E--3-3-3-3-3--3-3-3-3-3--7-7-7-7-7--7-7-7-7-7--|
(continued)
E----------------------------------------------|
B----------------------------------------------|
G----------------------------------------------|
D--5-5-5-5-5--5-5-5-5-5--7-7-7-7-7--7-7-7-7-7--|
A--3-3-3-3-3--3-3-3-3-3--5-5-5-5-5--5-5-5-5-5--|
E--3-3-3-3-3--3-3-3-3-3--5-5-5-5-5--5-5-5-5-5--|
(continued)
E----------------------------------------------|
B----------------------------------------------|
G----------------------------------------------|
D--5-5-5-5-5--5-5-5-5-5--9-9-9-9-9--9-9-9-9-9--|
A--3-3-3-3-3--3-3-3-3-3--7-7-7-7-7--7-7-7-7-7--|
E--3-3-3-3-3--3-3-3-3-3--7-7-7-7-7--7-7-7-7-7--|
(continued)
E----------------------------------------------|
B----------------------------------------------|
G----------------------------------------------|
D--5-5-5-5-5--5-5-5-5-5--7-7-7-7-7--7-7-7-7-7--|
A--3-3-3-3-3--3-3-3-3-3--5-5-5-5-5--5-5-5-5-5--|
E--3-3-3-3-3--3-3-3-3-3--5-5-5-5-5--5-5-5-5-5--|

Guitar 3 (comes in on 2nd time of the 4x part in Guitar 1)
E--------------------------------------|
B--------------------------------------|
G--9--11--12--11---9--11--12--11-------|
D-|    T  R  E  M  O  L  O      |----
A------------------------------------|
E------------------------------------|


VERSE:

Guitar 1
E-----------------------------------------|
B--------8-------8-------8----------------|
G--5-7-8---5-7-8---5-7-8---5-7-7b8r7------| 2x
D------------------------------------8~~--|
A-----------------------------------------|
E-----------------------------------------|
(continued)
E-----------------------------------------|
B--------8-------8-------8----------------|
G--5-7-8---5-7-8---5-7-8---5-7-7b8r7-7~~--| 2x
D-----------------------------------------|
A-----------------------------------------|
E-----------------------------------------|

Repeat entire thing

Guitar 2
E-----------------------------------|
B-----------------------------------|
G--5-5-5-5-5-5-5-5-5-5-5-5-5-5-5-5--|
D--5-5-5-5-5-5-5-5-5-5-5-5-5-5-5-5--|
A--3-3-3-3-3-3-3-3-3-3-3-3-3-3-3-3--|
E-----------------------------------|
(continued)
E-----------------------------------|
B-----------------------------------|
G--3-3-3-3-3-3-3-3-3-3-3-3-3-3-3-3--|
D--3-3-3-3-3-3-3-3-3-3-3-3-3-3-3-3--|
A--1-1-1-1-1-1-1-1-1-1-1-1-1-1-1-1--|
E-----------------------------------|
(continued)
E-----------------------------------|
B-----------------------------------|
G-----------------------------------|
D--5-5-5-5-5-5-5-5-5-5-5-5-5-5-5-5--|
A--5-5-5-5-5-5-5-5-5-5-5-5-5-5-5-5--|
E--3-3-3-3-3-3-3-3-3-3-3-3-3-3-3-3--|
(continued)
E-----------------------------------|
B-----------------------------------|
G-----------------------------------|
D--4-4-4-4-4-4-4-4-4-4-4-4-4-4-4-4--|
A--4-4-4-4-4-4-4-4-4-4-4-4-4-4-4-4--|
E--2-2-2-2-2-2-2-2-2-2-2-2-2-2-2-2--|


CHORUS:

Guitar 1
E------------------------------------|
B------------------------------------|
G--5-5-5-5-5-5-5-5-------------------|
D--5-5-5-5-5-5-5-5--------3----------|
A--3-3-3-3-3-3-3-3--3-5-6---6-5-3~~--|
E------------------------------------|
                    . . . . . . .
(continued)
E------------------------------------|
B------------------------------------|
G--3-3-3-3-3-3-3-3-------------------|
D--3-3-3-3-3-3-3-3--------3----------|
A--1-1-1-1-1-1-1-1--3-5-6---6-5-3~~--|
E------------------------------------|
                    . . . . . . .
(continued)
E------------------------------------|
B------------------------------------|
G--5-5-5-5-5-5-5-5-------------------|
D--5-5-5-5-5-5-5-5--------3----------|
A--3-3-3-3-3-3-3-3--3-5-6---6-5-3~~--|
E------------------------------------|
                    . . . . . . .
(continued)
E------------------------------------|
B------------------------------------|
G--5-5-5-5-5-5-5-5-------------------|
D--5-5-5-5-5-5-5-5--------3----------|
A--3-3-3-3-3-3-3-3--3-5-6---6-5-3~~--|
E------------------------------------|
                    . . . . . . .

Guitar 2
E-----------------------------------|
B-----------------------------------|
G--9-9-9-9-9-9-9-9-9-9-9-9-9-9-9-9--|
D--x-x-x-x-x-x-x-x-x-x-x-x-x-x-x-x--|
A--7-7-7-7-7-7-7-7-7-7-7-7-7-7-7-7--|
E-----------------------------------|
(continued)
E-----------------------------------|
B-----------------------------------|
G--7-7-7-7-7-7-7-7-7-7-7-7-7-7-7-7--|
D--x-x-x-x-x-x-x-x-x-x-x-x-x-x-x-x--|
A--5-5-5-5-5-5-5-5-5-5-5-5-5-5-5-5--|
E-----------------------------------|
(continued
E-----------------------------------|
B-----------------------------------|
G--9-9-9-9-9-9-9-9-9-9-9-9-9-9-9-9--|
D--x-x-x-x-x-x-x-x-x-x-x-x-x-x-x-x--|
A--7-7-7-7-7-7-7-7-7-7-7-7-7-7-7-7--|
E-----------------------------------|
(continued)
E----------------------------------------------------|
B----------------------------------------------------|
G--12-12-12-12-12-12-12-12--16-16-16-16-17-17-17-17--|
D---x--x--x--x--x--x--x--x---x--x--x--x--x--x--x--x--|
A--10-10-10-10-10-10-10-10--14-14-14-14-15-15-15-15--|
E----------------------------------------------------|

Guitar 1
E------------------------------------|
B------------------------------------|
G--5-5-5-5-5-5-5-5-------------------|
D--5-5-5-5-5-5-5-5--------3----------|
A--3-3-3-3-3-3-3-3--3-5-6---6-5-3~~--|
E------------------------------------|
 (continued)
E------------------------------------|
B------------------------------------|
G--3-3-3-3-3-3-3-3-------------------|
D--3-3-3-3-3-3-3-3--------3----------|
A--1-1-1-1-1-1-1-1--3-5-6---6-5-3~~--|
E------------------------------------|
(continued)
E------------------------------------|
B------------------------------------|
G--5-5-5-5-5-5-5-5-------------------|
D--5-5-5-5-5-5-5-5--------3----------|
A--3-3-3-3-3-3-3-3--3-5-6---6-5-3~~--|
E------------------------------------|
 (continued)
E------------------------------------|
B------------------------------------|
G--5-5-5-5-5-5-5-5-------------------|
D--5-5-5-5-5-5-5-5--------3----------|
A--3-3-3-3-3-3-3-3--3-5-6---6-5-3~~--|
E------------------------------------|

Guitar 2
E-----------------------------------|
B-----------------------------------|
G--9-9-9-9-9-9-9-9-9-9-9-9-9-9-9-9--|
D--x-x-x-x-x-x-x-x-x-x-x-x-x-x-x-x--|
A--7-7-7-7-7-7-7-7-7-7-7-7-7-7-7-7--|
E-----------------------------------|
(continued)
E-----------------------------------|
B-----------------------------------|
G--7-7-7-7-7-7-7-7-7-7-7-7-7-7-7-7--|
D--x-x-x-x-x-x-x-x-x-x-x-x-x-x-x-x--|
A--5-5-5-5-5-5-5-5-5-5-5-5-5-5-5-5--|
E-----------------------------------|
(continued
E-----------------------------------|
B-----------------------------------|
G--9-9-9-9-9-9-9-9-9-9-9-9-9-9-9-9--|
D--x-x-x-x-x-x-x-x-x-x-x-x-x-x-x-x--|
A--7-7-7-7-7-7-7-7-7-7-7-7-7-7-7-7--|
E-----------------------------------|
(continued)
E----------------------------------------------------|
B----------------------------------------------------|
G--12-12-12-12-12-12-12-12--16-16-16-16-17-17-17-17--|
D---x--x--x--x--x--x--x--x---x--x--x--x--x--x--x--x--|
A--10-10-10-10-10-10-10-10--14-14-14-14-15-15-15-15--|
E----------------------------------------------------|

REPEAT ENTIRE CHORUS then end


Thank you. Have fun with this and try and be awesome when you play it :D.
comments
We did not receive enough feedback on this tab! Please rate:
print report bad tab
1 2 3 4 5
I want to post or [tab]
guest
You may want to rate the tab now too:
select rating
Please do not post tabs as comments. Select "correction" instead!