Oops, an error
Loading. Please wait.

Morgawr - Herlathing Tab

ver1
ver1

Whole song

Interactive

More versions @911Tabs.com
30 views 1 this week
no commentswrite comment
1 2 3 4 5
please rate
add to favorites launch autoscroll
font size
0
reset
Autoscroll
+/-
esc
set tempo
stop
Contributor
Difficulty
Tuning
advanced
D G C F A D
WARNING: You are trying to view
                                    content from Ultimate-Guitar.com
                                    in an unauthorized application,
                                    which is prohibited.

                                    Please use an official Ultimate
                                    Guitar Tabs application for iPhone,
                                    iPad or Android to access legitimate
                                    chords, guitar, bass, and drum tabs
                                    from Ultimate-Guitar.com database.

                                    Type "ultimate guitar tabs" in Apple
                                    App Store's or Android Market's
                                    search to find the application.
Tempo = 70
Alexander Lead

Legend
L - tied note
x - dead note
h - hammer on/pull off
b - bend
s - slide
~ - vibrato
g - ghost note
> - accentuated note
t - trill
M - palm mute
. - staccato
P - popping (bass)
S - slapping (bass)
+ - tapping
W - wide vibrato
< - fade in
w - whammy bar
= - tremolo picking
v - brush up
^ - brush down
V - pick stroke up
n - pick stroke down


D |----------------------------------------------------|
A |----------------------------------------------------|
F |----------------------------------------------------|
C |----------------------------------------------------|
G |----------------------------------------------------|
D |--------0M-0M-0M----------0M-0M-0M----0M----0M-0M---|


----------------------------------------------------|
----------------------------------------------------|
----------------------------------------------------|
----------------------------------------------------|
----------------------------------------------------|
--------0M-0M-0M----------0M-0M-0M----0M----0M-0M---|


----------------------------------------------------|
----------------------------------------------------|
----------------------------------------------------|
----------------------------------------------------|
----------------------------------------------------|
--------0M-0M-0M----------0M-0M-0M----0M----0M-0M---|


----------------------------------------------------|
----------------------------------------------------|
----------------------------------------------------|
----------------------------------------------------|
----------------------------------------------------|
--------0M-0M-0M----------0M-0M-0M----0M----0M-0M---|


----------------------------------------------------|
----------------------------------------------------|
----------------------------------------------------|
----------------------------------------------------|
----------------------------------------------------|
--------0M-0M-0M----------0M-0M-0M----0M----0M-0M---|


----------------------------------------------------|
----------------------------------------------------|
----------------------------------------------------|
----------------------------------------------------|
----------------------------------------------------|
--------0M-0M-0M----------0M-0M-0M----0M----0M-0M---|


----------------------------------------------------|
----------------------------------------------------|
----------------------------------------------------|
----------------------------------------------------|
----------------------------------------------------|
--------0M-0M-0M----------0M-0M-0M----0M----0M-0M---|


----------------------------------------------------|
----------------------------------------------------|
----------------------------------------------------|
----------------------------------------------------|
----------------------------------------------------|
--------0M-0M-0M----------0M-0M-0M----0M----0M-0M---|


----------------------------------------------------|
----------------------------------------------------|
----------------------------------------------------|
----------------------------------------------------|
----------------------------------------------------|
--------0M-0M-0M----------0M-0M-0M----0M----0M-0M---|


----------------------------------------------------|
----------------------------------------------------|
----------------------------------------------------|
----------------------------------------------------|
----------------------------------------------------|
--------0M-0M-0M----------0M-0M-0M----0M----0M-0M---|


----------------------------------------------------|
----------------------------------------------------|
----------------------------------------------------|
----------------------------------------------------|
----------------------------------------------------|
--------0M-0M-0M----------0M-0M-0M----0M----0M-0M---|


----------------------------------------------------|
----------------------------------------------------|
----------------------------------------------------|
----------------------------------------------------|
----------------------------------------------------|
--------0M-0M-0M----------0M-0M-0M----0M----0M-0M---|


----------------------------------------------------|
----------------------------------------------------|
----------------------------------------------------|
----------------------------------------------------|
----------------------------------------------------|
--------0M-0M-0M----------0M-0M-0M----0M----0M-0M---|


----------------------------------------------------|
----------------------------------------------------|
----------------------------------------------------|
----------------------------------------------------|
----------------------------------------------------|
--------0M-0M-0M----------0M-0M-0M----0M----0M-0M---|


----------------------------------------------------|
----------------------------------------------------|
----------------------------------------------------|
----------------------------------------------------|
----------------------------------------------------|
--------0M-0M-0M----------0M-0M-0M----0M----0M-0M---|


----------------------------------------------------|
----------------------------------------------------|
----------------------------------------------------|
----------------------------------------------------|
----------------------------------------------------|
--------0M-0M-0M----------0M-0M-0M----0M----0M-0M---|


--------3L-3--3L-------3--6--5--6-----3L----3L-3L---|
----------------------------------------------------|
----------------------------------------------------|
----------------------------------------------------|
----------------------------------------------------|
----------------------------------------------------|


--3-----3L-3--3L-------3--6--5--6-----8-----6--5----|
----------------------------------------------------|
----------------------------------------------------|
----------------------------------------------------|
----------------------------------------------------|
----------------------------------------------------|


--------3L-3--3L-------3--6--5--6-----3-------------|
----------------------------------------------------|
----------------------------------------------------|
----------------------------------------------------|
----------------------------------------------------|
----------------------------------------------------|


--6--5--6-----8-----------6--5--3-----3-------------|
----------------------------------------------------|
----------------------------------------------------|
----------------------------------------------------|
----------------------------------------------------|
----------------------------------------------------|


----------------------------------------------------|
----------------------------------------------------|
----------------------------------------------------|
----------------------------------------------------|
--------7-----7-----------10-9--10----7-------------|
--0--------0-----------0--------------------0--0----|


----------------------------------------------------|
----------------------------------------------------|
----------------------------------------------------|
----------------------------------------------------|
--------7-----7-----------10-9--10----12----10-9----|
--0--------0-----------0----------------------------|


----------------------------------------------------|
----------------------------------------------------|
----------------------------------------------------|
----------------------------------------------------|
--------7-----7-----------10-9--10----7-------------|
--0--------0-----------0--------------------0--0----|


----------------------------------------------------|
----------------------------------------------------|
----------------------------------------------------|
----------------------------------------------------|
--10-9--10----12----------10-9--7-----7-------------|
----------------------------------------------------|


----------------------------------------------------|
----------------------------------------------------|
----------------------------------------------------|
----------------------------------------------------|
--------7-----7-----------10-9--10----7-------------|
--0--------0-----------0--------------------0--0----|


----------------------------------------------------|
----------------------------------------------------|
----------------------------------------------------|
----------------------------------------------------|
--------7-----7-----------10-9--10----12----10-9----|
--0--------0-----------0----------------------------|


----------------------------------------------------|
----------------------------------------------------|
----------------------------------------------------|
----------------------------------------------------|
--------7-----7-----------10-9--10----7-------------|
--0--------0-----------0--------------------0--0----|


----------------------------------------------------|-------|-------|
----------------------------------------------------|-------|-------|
----------------------------------------------------|-------|-------|
----------------------------------------------------|-------|-------|
--10-9--10----12----------10-9--7-----7-------------|--2L---|--2----|
----------------------------------------------------|--0L---|--0----|


----------------------------------------------------|
----------------------------------------------------|
----------------------------------------------------|
-----9--------10-------------10-------7s-9--9-------|
-----7--------7--------------7--------5s-7--7-------|
--0-----0--0--------0--0--0-----0--0----------------|


----------------------------------------------------|
----------------------------------------------------|
----------------------------------------------------|
-----5--------5-------------------------------------|
-----3--------3-----------------5-----3--2--0-------|
--0-----0--0--------0-----0-------------------------|


----------------------------------------------------|
----------------------------------------------------|
----------------------------------------------------|
-----9--------10-------------10-------7s-9--9-------|
-----7--------7--------------7--------5s-7--7-------|
--0-----0--0--------0--0--0-----0--0----------------|


----------------------------------------------------|
----------------------------------------------------|
----------------------------------------------------|
-----5--------5-------------------------------------|
-----3--------3-----------------5-----3--2--0-------|
--0-----0--0--------0-----0-------------------------|


----------------------------------------------------|
----------------------------------------------------|
----------------------------------------------------|
-----9--------10-------------10-------7s-9--9-------|
-----7--------7--------------7--------5s-7--7-------|
--0-----0--0--------0--0--0-----0--0----------------|


----------------------------------------------------|
----------------------------------------------------|
----------------------------------------------------|
-----5--------5-------------------------------------|
-----3--------3-----------------5-----3--2--0-------|
--0-----0--0--------0-----0-------------------------|


----------------------------------------------------|
----------------------------------------------------|
----------------------------------------------------|
-----9--------10-------------10-------7s-9--9-------|
-----7--------7--------------7--------5s-7--7-------|
--0-----0--0--------0--0--0-----0--0----------------|


----------------------------------------------------|
----------------------------------------------------|
----------------------------------------------------|
-----5--------5-------------------------------------|
-----3--------3-----------------5-----3--2--0-------|
--0-----0--0--------0-----0-------------------------|


----------------------------------------------------|
----------------------------------------------------|
----------------------------------------------------|
----------------------------------------------------|
--2-----------------------5--3--2-------------------|
--0-----------------------5--3--2-------------------|


----------------------------------------------------|
----------------------------------------------------|
----------------------------------------------------|
--5-------------------------------------------------|
--3-----------------------7--5--4-----2-------------|
--------------------------5--3--2-----0-------------|


----------------------------------------------------|
----------------------------------------------------|
----------------------------------------------------|
----------------------------------------------------|
--2-----------------------5--3--2-------------------|
--0-----------------------5--3--2-------------------|


----------------------------------------------------|
----------------------------------------------------|
----------------------------------------------------|
--5-------------------------------------------------|
--3-----------------------7--5--4-----2-------------|
--------------------------5--3--2-----0-----12s-----|


----------------------------------------------------|
----------------------------------------------------|
----------------------------------------------------|
----------------------------------------------------|
--------7-----7-----------10-9--10----7-------------|
--0--------0-----------0--------------------0--0----|


----------------------------------------------------|
----------------------------------------------------|
----------------------------------------------------|
----------------------------------------------------|
--------7-----7-----------10-9--10----12----10-9----|
--0--------0-----------0----------------------------|


----------------------------------------------------|
----------------------------------------------------|
----------------------------------------------------|
----------------------------------------------------|
--------7-----7-----------10-9--10----7-------------|
--0--------0-----------0--------------------0--0----|


----------------------------------------------------|
----------------------------------------------------|
----------------------------------------------------|
----------------------------------------------------|
--10-9--10----12----------10-9--7-----7-------------|
----------------------------------------------------|


----------------------------------------------------|
----------------------------------------------------|
----------------------------------------------------|
----------------------------------------------------|
--------7-----7-----------10-9--10----7-------------|
--0--------0-----------0--------------------0--0----|


----------------------------------------------------|
----------------------------------------------------|
----------------------------------------------------|
----------------------------------------------------|
--------7-----7-----------10-9--10----12----10-9----|
--0--------0-----------0----------------------------|


----------------------------------------------------|
----------------------------------------------------|
----------------------------------------------------|
----------------------------------------------------|
--------7-----7-----------10-9--10----7-------------|
--0--------0-----------0--------------------0--0----|


----------------------------------------------------|
----------------------------------------------------|
----------------------------------------------------|
----------------------------------------------------|
--10-9--10----12----------10-9--7-----7-------------|
----------------------------------------------------|


----------------------------------------------------|
----------------------------------------------------|
----------------------------------------------------|
-----9--------10-------------10-------7s-9--9-------|
-----7--------7--------------7--------5s-7--7-------|
--0-----0--0--------0--0--0-----0--0----------------|


----------------------------------------------------|
----------------------------------------------------|
----------------------------------------------------|
-----5--------5-------------------------------------|
-----3--------3-----------------5-----3--2--0-------|
--0-----0--0--------0-----0-------------------------|


----------------------------------------------------|
----------------------------------------------------|
----------------------------------------------------|
-----9--------10-------------10-------7s-9--9-------|
-----7--------7--------------7--------5s-7--7-------|
--0-----0--0--------0--0--0-----0--0----------------|


----------------------------------------------------|
----------------------------------------------------|
----------------------------------------------------|
-----5--------5-------------------------------------|
-----3--------3-----------------5-----3--2--0-------|
--0-----0--0--------0-----0-------------------------|


----------------------------------------------------|
----------------------------------------------------|
----------------------------------------------------|
----------------------------------------------------|
--2-----------------------5--3--2-------------------|
--0-----------------------5--3--2-------------------|


----------------------------------------------------|
----------------------------------------------------|
----------------------------------------------------|
--5-------------------------------------------------|
--3-----------------------7--5--4-----2-------------|
--------------------------5--3--2-----0-------------|


----------------------------------------------------|
----------------------------------------------------|
----------------------------------------------------|
----------------------------------------------------|
--2-----------------------5--3--2-------------------|
--0-----------------------5--3--2-------------------|


----------------------------------------------------|
----------------------------------------------------|
----------------------------------------------------|
--5-------------------------------------------------|
--3-----------------------7--5--4-----2-------------|
--------------------------5--3--2-----0-----12s-----|


----------------------------------------------------|
----------------------------------------------------|
----------------------------------------------------|
----------------------------------------------------|
--------7-----7-----------10-9--10----7-------------|
--0--------0-----------0--------------------0--0----|


----------------------------------------------------|
----------------------------------------------------|
----------------------------------------------------|
----------------------------------------------------|
--------7-----7-----------10-9--10----12----10-9----|
--0--------0-----------0----------------------------|


----------------------------------------------------|
----------------------------------------------------|
----------------------------------------------------|
----------------------------------------------------|
--------7-----7-----------10-9--10----7-------------|
--0--------0-----------0--------------------0--0----|


----------------------------------------------------|
----------------------------------------------------|
----------------------------------------------------|
----------------------------------------------------|
--10-9--10----12----------10-9--7-----7-------------|
----------------------------------------------------|


----------------------------------------------------|
----------------------------------------------------|
----------------------------------------------------|
----------------------------------------------------|
--------7-----7-----------10-9--10----7-------------|
--0--------0-----------0--------------------0--0----|


----------------------------------------------------|
----------------------------------------------------|
----------------------------------------------------|
----------------------------------------------------|
--------7-----7-----------10-9--10----12----10-9----|
--0--------0-----------0----------------------------|


----------------------------------------------------|
----------------------------------------------------|
----------------------------------------------------|
----------------------------------------------------|
--------7-----7-----------10-9--10----7-------------|
--0--------0-----------0--------------------0--0----|


----------------------------------------------------|
----------------------------------------------------|
----------------------------------------------------|
----------------------------------------------------|
--10-9--10----12----------10-9--7-----7-------------|
----------------------------------------------------|


----------------------------------------------------------------------------|
----------------------------------------------------------------------------|
----------------------------------------------------------------------------|
--9-----------------9-----------------9-------------------------------------|
--7-----------------7--------8--7--5--7-----------------8--7--5--7--5--3----|
--------0--0--0--0--------0-----------------0--0--0--0----------------------|


----------------------------------------------------------------------------|
----------------------------------------------------------------------------|
----------------------------------------------------------------------------|
--4-----------------4-----------------5-------------------------------------|
--2-----------------2-----------------3-----------------3--2--0--5--3--2----|
--------0--0--0--0--------0--0--0--0--------0--0--0--0----------------------|


----------------------------------------------------------------------------|
----------------------------------------------------------------------------|
----------------------------------------------------------------------------|
--9-----------------9-----------------9-------------------------------------|
--7-----------------7--------8--7--5--7-----------------8--7--5--7--5--3----|
--------0--0--0--0--------0-----------------0--0--0--0----------------------|


----------------------------------------------------------------------------|
----------------------------------------------------------------------------|
----------------------------------------------------------------------------|
--4-----------------4-----------------5-------------------------------------|
--2-----------------2-----------------3-----------------3--2--0--5--3--2----|
--------0--0--0--0--------0--0--0--0--------0--0--0--0----------------------|


----------------------------------------------------------------------------|
----------------------------------------------------------------------------|
----------------------------------------------------------------------------|
--9-----------------9-----------------9-------------------------------------|
--7-----------------7--------8--7--5--7-----------------8--7--5--7--5--3----|
--------0--0--0--0--------0-----------------0--0--0--0----------------------|


----------------------------------------------------------------------------|
----------------------------------------------------------------------------|
----------------------------------------------------------------------------|
--4-----------------4-----------------5-------------------------------------|
--2-----------------2-----------------3-----------------3--2--0--5--3--2----|
--------0--0--0--0--------0--0--0--0--------0--0--0--0----------------------|


----------------------------------------------------------------------------|
----------------------------------------------------------------------------|
----------------------------------------------------------------------------|
--9-----------------9-----------------9-------------------------------------|
--7-----------------7--------8--7--5--7-----------------8--7--5--7--5--3----|
--------0--0--0--0--------0-----------------0--0--0--0----------------------|


----------------------------------------------------------------------------|
----------------------------------------------------------------------------|
----------------------------------------------------------------------------|
--4-----------------4-----------------5-------------------------------------|
--2-----------------2-----------------3-----------------3--2--0--5--3--2----|
--------0--0--0--0--------0--0--0--0--------0--0--0--0----------------------|


----------------------------------------------------------------------------|
----------------------------------------------------------------------------|
----------------------------------------------------------------------------|
--9-----------------9-----------------9-------------------------------------|
--7-----------------7--------8--7--5--7-----------------8--7--5--7--5--3----|
--------0--0--0--0--------0-----------------0--0--0--0----------------------|


----------------------------------------------------------------------------|
----------------------------------------------------------------------------|
----------------------------------------------------------------------------|
--4-----------------4-----------------5-------------------------------------|
--2-----------------2-----------------3-----------------3--2--0--5--3--2----|
--------0--0--0--0--------0--0--0--0--------0--0--0--0----------------------|


----------------------------------------------------------------------------|
----------------------------------------------------------------------------|
----------------------------------------------------------------------------|
----------------------------------------------------------------------------|
--2--------3--------2--------3--------5--------3--------5-----8--7----------|
-----0--0-----0--0-----0--0-----0--0-----0--0-----0--0-----0--------0--0----|


----------------------------------------------------------------------------|
----------------------------------------------------------------------------|
----------------------------------------------------------------------------|
----------------------------------------------------------------------------|
--2--------3--------2--------3--------5--------3--------5-----8--7----------|
-----0--0-----0--0-----0--0-----0--0-----0--0-----0--0-----0--------0--0----|


----------------------------------------------------------------------------|
----------------------------------------------------------------------------|
----------------------------------------------------------------------------|
----------------------------------------------------------------------------|
--2--------3--------5--------7--------8--------10-------12----14-15---------|
-----0--0-----0--0-----0--0-----0--0-----0--0-----0--0-----0--------0--0----|


--------------------------------------------------------------------------------
--------------------------------------------------------------------------------
--------------------------------------------------------------------------------
--------------------------------------------------------------------------------
--15-------14-------12-------10-------8--------7--------5--------3L-------------
-----0--0-----0--0-----0--0-----0--0-----0--0-----0--0-----0--0-----------------


--------------|
--------------|
--------------|
--------------|
---------3~---|
--------------|


----------------------------------------------------------------------------|
----------------------------------------------------------------------------|
----------------------------------------------------------------------------|
--9-----------------9-----------------9-------------------------------------|
--7-----------------7--------8--7--5--7-----------------8--7--5--7--5--3----|
--------0--0--0--0--------0-----------------0--0--0--0----------------------|


----------------------------------------------------------------------------|
----------------------------------------------------------------------------|
----------------------------------------------------------------------------|
--4-----------------4-----------------5-------------------------------------|
--2-----------------2-----------------3-----------------3--2--0--5--3--2----|
--------0--0--0--0--------0--0--0--0--------0--0--0--0----------------------|


----------------------------------------------------------------------------|
----------------------------------------------------------------------------|
----------------------------------------------------------------------------|
--9-----------------9-----------------9-------------------------------------|
--7-----------------7--------8--7--5--7-----------------8--7--5--7--5--3----|
--------0--0--0--0--------0-----------------0--0--0--0----------------------|


----------------------------------------------------------------------------|
----------------------------------------------------------------------------|
----------------------------------------------------------------------------|
--4-----------------4-----------------5-------------------------------------|
--2-----------------2-----------------3-----------------3--2--0--5--3--2----|
--------0--0--0--0--------0--0--0--0--------0--0--0--0----------------------|


----------------------------------------------------------------------------|
----------------------------------------------------------------------------|
----------------------------------------------------------------------------|
--9-----------------9-----------------9-------------------------------------|
--7-----------------7--------8--7--5--7-----------------8--7--5--7--5--3----|
--------0--0--0--0--------0-----------------0--0--0--0----------------------|


----------------------------------------------------------------------------|
----------------------------------------------------------------------------|
----------------------------------------------------------------------------|
--4-----------------4-----------------5-------------------------------------|
--2-----------------2-----------------3-----------------3--2--0--5--3--2----|
--------0--0--0--0--------0--0--0--0--------0--0--0--0----------------------|


----------------------------------------------------------------------------|
----------------------------------------------------------------------------|
----------------------------------------------------------------------------|
--9-----------------9-----------------9-------------------------------------|
--7-----------------7--------8--7--5--7-----------------8--7--5--7--5--3----|
--------0--0--0--0--------0-----------------0--0--0--0----------------------|


----------------------------------------------------------------------------|
----------------------------------------------------------------------------|
----------------------------------------------------------------------------|
--4-----------------4-----------------5-------------------------------------|
--2-----------------2-----------------3-----------------3--2--0--5--3--2----|
--------0--0--0--0--------0--0--0--0--------0--0--0--0----------------------|


----------------------------------------------------------------------------|
----------------------------------------------------------------------------|
----------------------------------------------------------------------------|
----------------------------------------------------------------------------|
--2--------3--------2--------3--------5--------3--------5-----8--7----------|
-----0--0-----0--0-----0--0-----0--0-----0--0-----0--0-----0--------0--0----|


----------------------------------------------------------------------------|
----------------------------------------------------------------------------|
----------------------------------------------------------------------------|
----------------------------------------------------------------------------|
--2--------3--------2--------3--------5--------3--------5-----8--7----------|
-----0--0-----0--0-----0--0-----0--0-----0--0-----0--0-----0--------0--0----|


----------------------------------------------------------------------------|
----------------------------------------------------------------------------|
----------------------------------------------------------------------------|
----------------------------------------------------------------------------|
--2--------3--------5--------7--------8--------10-------12----14-15---------|
-----0--0-----0--0-----0--0-----0--0-----0--0-----0--0-----0--------0--0----|


--------------------------------------------------------------------------------
--------------------------------------------------------------------------------
--------------------------------------------------------------------------------
--------------------------------------------------------------------------------
--15-------14-------12-------10-------8--------7--------5--------3L-------------
-----0--0-----0--0-----0--0-----0--0-----0--0-----0--0-----0--0-----------------


--------------|-------|-------|
--------------|-------|-------|
--------------|-------|-------|
--------------|-------|-------|
---------3~---|--2L---|--2----|
--------------|--0L---|--0----|


----------------------------------------------------------------------------|
----------------------------------------------------------------------------|
----------------------------------------------------------------------------|
----------------------------------------------------------------------------|
--10-9--------------8--7-----7--5-----3--2--0--2--3--2-----2-----5--7--8----|
--------0--0--0--0--------0--------0--------------------0-----0-------------|


----------------------------------------------------------------------------|
----------------------------------------------------------------------------|
----------------------------------------------------------------------------|
----------------------------------------------------------------------------|
--10-9--------------8--7-----7--5-----3--2--0--2--3--2-----2-----5--7--8----|
--------0--0--0--0--------0--------0--------------------0-----0-------------|


----------------------------------------------------------------------------|
----------------------------------------------------------------------------|
----------------------------------------------------------------------------|
----------------------------------------------------------------------------|
--10-9--------------8--7-----7--5-----3--2--0--2--3--2-----2-----5--7--8----|
--------0--0--0--0--------0--------0--------------------0-----0-------------|


----------------------------------------------------------------------------|
----------------------------------------------------------------------------|
----------------------------------------------------------------------------|
----------------------------------------------------------------------------|
--10-9--------------8--7-----7--5-----3--2--0--2--3--2-----2-----5--7--8----|
--------0--0--0--0--------0--------0--------------------0-----0-------------|


----------------------------------------------------------------------------|
----------------------------------------------------------------------------|
----------------------------------------------------------------------------|
----------------------------------------------------------------------------|
----------------------------------------------------------------------------|
----------------------------------------------------------------------------|


----------------------------------------------------------------------------|
----------------------------------------------------------------------------|
----------------------------------------------------------------------------|
----------------------------------------------------------------------------|
----------------------------------------------------------------------------|
----------------------------------------------------------------------------|


----------------------------------------------------------------------------|
----------------------------------------------------------------------------|
----------------------------------------------------------------------------|
----------------------------------------------------------------------------|
----------------------------------------------------------------------------|
----------------------------------------------------------------------------|


----------------------------------------------------------------------------|
----------------------------------------------------------------------------|
----------------------------------------------------------------------------|
----------------------------------------------------------------------------|
----------------------------------------------------------------------------|
----------------------------------------------------------------------------|


----------------------------------------------------------------------------|
----------------------------------------------------------------------------|
----------------------------------------------------------------------------|
----------------------------------------------------------------------------|
----------------------------------------------------------------------------|
--0M----0M-0M-0M-0M-0M----0M-0M-0M-0M-0M----0M-0M-0M-0M-0M----0M-0M-0M-0M---|


----------------------------------------------------------------------------|
----------------------------------------------------------------------------|
----------------------------------------------------------------------------|
----------------------------------------------------------------------------|
----------------------------------------------------------------------------|
--0M----0M-0M-0M-0M-0M----0M-0M-0M-0M-0M----0M-0M-0M-0M-0M----0M-0M-0M-0M---|


----------------------------------------------------------------------------|
----------------------------------------------------------------------------|
----------------------------------------------------------------------------|
----------------------------------------------------------------------------|
----------------------------------------------------------------------------|
--0M----0M-0M-0M-0M-0M----0M-0M-0M-0M-0M----0M-0M-0M-0M-0M----0M-0M-0M-0M---|


----------------------------------------------------------------------------|
----------------------------------------------------------------------------|
----------------------------------------------------------------------------|
----------------------------------------------------------------------------|
----------------------------------------------------------------------------|
--0M----0M-0M-0M-0M-0M----0M-0M-0M-0M-0M----0M-0M-0M-0M-0M----0M-0M-0M-0M---|


----------------------------------------------------------------------------|
----------------------------------------------------------------------------|
----------------------------------------------------------------------------|
----------------------------------------------------------------------------|
----------------------------------------------------------------------------|
--2M----2M-2M-2M-2M-2M----2M-2M-2M-2M-2M----2M-2M-2M-2M-2M----2M-2M-2M-2M---|


----------------------------------------------------------------------------|
----------------------------------------------------------------------------|
----------------------------------------------------------------------------|
----------------------------------------------------------------------------|
----------------------------------------------------------------------------|
--2M----2M-2M-2M-2M-2M----2M-2M-2M-2M-2M----2M-2M-2M-2M-2M----2M-2M-2M-2M---|


----------------------------------------------------------------------------|
----------------------------------------------------------------------------|
----------------------------------------------------------------------------|
----------------------------------------------------------------------------|
----------------------------------------------------------------------------|
--2M----2M-2M-2M-2M-2M----2M-2M-2M-2M-2M----2M-2M-2M-2M-2M----2M-2M-2M-2M---|


----------------------------------------------------------------------------|
----------------------------------------------------------------------------|
----------------------------------------------------------------------------|
----------------------------------------------------------------------------|
----------------------------------------------------------------------------|
--2M----2M-2M-2M-2M-2M----2M-2M-2M-2M-2M----2M-2M-2M-2M-2M----2M-2M-2M-2M---|


----------------------------------------------------------------------------|
----------------------------------------------------------------------------|
----------------------------------------------------------------------------|
----------------------------------------------------------------------------|
--10-9--------------8--7-----7--5-----3--2--0--2--3--2-----2-----5--7--8----|
--------0--0--0--0--------0--------0--------------------0-----0-------------|


----------------------------------------------------------------------------|
----------------------------------------------------------------------------|
----------------------------------------------------------------------------|
----------------------------------------------------------------------------|
--10-9--------------8--7-----7--5-----3--2--0--2--3--2-----2-----5--7--8----|
--------0--0--0--0--------0--------0--------------------0-----0-------------|


----------------------------------------------------------------------------|
----------------------------------------------------------------------------|
----------------------------------------------------------------------------|
----------------------------------------------------------------------------|
--10-9--------------8--7-----7--5-----3--2--0--2--3--2-----2-----5--7--8----|
--------0--0--0--0--------0--------0--------------------0-----0-------------|


----------------------------------------------------------------------------|
----------------------------------------------------------------------------|
----------------------------------------------------------------------------|
----------------------------------------------------------------------------|
--10-9--------------8--7-----7--5-----3--2--0--2--3--2-----2-----5--7--8----|
--------0--0--0--0--------0--------0--------------------0-----0-------------|


----------------|----------------|----------------|-------|
----------------|----------------|----------------|-------|
----------------|----------------|----------------|-------|
-----------0----|-----------0----|-----------0----|-------|
--2L----2--0----|--2L----2--0----|--2L----2--0----|--2----|
--0L----0-------|--0L----0-------|--0L----0-------|--0----|


----------------------------------------------------------------------------|
----------------------------------------------------------------------------|
----------------------------------------------------------------------------|
--9-----------------9-----------------9-----------------7-----7-----7-------|
--7-----------------7-----------------7-----------------5-----5-----5-------|
--------0M-0M-0M-0M-------0M-0M-0M-0M-------0M-0M-0M-0M---------------------|


----------------------------------------------------------------------------|
----------------------------------------------------------------------------|
----------------------------------------------------------------------------|
--9-----------------9-----------------9-----------------7-----7-----7-------|
--7-----------------7-----------------7-----------------5-----5-----5-------|
--------0M-0M-0M-0M-------0M-0M-0M-0M-------0M-0M-0M-0M---------------------|


----------------------------------------------------------------------------|
----------------------------------------------------------------------------|
----------------------------------------------------------------------------|
--9-----------------9-----------------9-----------------7-----7-----7-------|
--7-----------------7-----------------7-----------------5-----5-----5-------|
--------0M-0M-0M-0M-------0M-0M-0M-0M-------0M-0M-0M-0M---------------------|


----------------------------------------------------------------------------|
----------------------------------------------------------------------------|
----------------------------------------------------------------------------|
--9-----------------9-----------------9-----------------7-----7-----7-------|
--7-----------------7-----------------7-----------------5-----5-----5-------|
--------0M-0M-0M-0M-------0M-0M-0M-0M-------0M-0M-0M-0M---------------------|


----------------------------------------------------------------------------|
----------------------------------------------------------------------------|
----------------------------------------------------------------------------|
--9-----------------9-----------------9-----------------7-----7-----7-------|
--7-----------------7-----------------7-----------------5-----5-----5-------|
--------0M-0M-0M-0M-------0M-0M-0M-0M-------0M-0M-0M-0M---------------------|


----------------------------------------------------------------------------|
----------------------------------------------------------------------------|
----------------------------------------------------------------------------|
--9-----------------9-----------------9-----------------7-----7-----7-------|
--7-----------------7-----------------7-----------------5-----5-----5-------|
--------0M-0M-0M-0M-------0M-0M-0M-0M-------0M-0M-0M-0M---------------------|


----------------------------------------------------------------------------|
----------------------------------------------------------------------------|
----------------------------------------------------------------------------|
--9-----------------9-----------------9-----------------7-----7-----7-------|
--7-----------------7-----------------7-----------------5-----5-----5-------|
--------0M-0M-0M-0M-------0M-0M-0M-0M-------0M-0M-0M-0M---------------------|


----------------------------------------------------------------------------|
----------------------------------------------------------------------------|
----------------------------------------------------------------------------|
--9-----------------9-----------------9-----------------7-----7-----7-------|
--7-----------------7-----------------7-----------------5-----5-----5-------|
--------0M-0M-0M-0M-------0M-0M-0M-0M-------0M-0M-0M-0M---------------------|


----------------------------------------------------------------------------|
----------------------------------------------------------------------------|
----------------------------------------------------------------------------|
--9-----------------9-----------------9-----------------7-----7-----7-------|
--7-----------------7-----------------7-----------------5-----5-----5-------|
--------0M-0M-0M-0M-------0M-0M-0M-0M-------0M-0M-0M-0M---------------------|


----------------------------------------------------------------------------|
----------------------------------------------------------------------------|
----------------------------------------------------------------------------|
--9-----------------9-----------------9-----------------7-----7-----7-------|
--7-----------------7-----------------7-----------------5-----5-----5-------|
--------0M-0M-0M-0M-------0M-0M-0M-0M-------0M-0M-0M-0M---------------------|


----------------------------------------------------------------------------|
----------------------------------------------------------------------------|
----------------------------------------------------------------------------|
--9-----------------9-----------------9-----------------7-----7-----7-------|
--7-----------------7-----------------7-----------------5-----5-----5-------|
--------0M-0M-0M-0M-------0M-0M-0M-0M-------0M-0M-0M-0M---------------------|


----------------------------------------------------------------------------|
----------------------------------------------------------------------------|
----------------------------------------------------------------------------|
--9-----------------9-----------------9-----------------7-----7-----7-------|
--7-----------------7-----------------7-----------------5-----5-----5-------|
--------0M-0M-0M-0M-------0M-0M-0M-0M-------0M-0M-0M-0M---------------------|


--0L-0--0--2--3L-3--3L-3--3--2--------0L-0--0--2--3L-3----------------------|
--------------------------------3L-3--------------------3--------3--3-------|
----------------------------------------------------------------------------|
----------------------------------------------------------------------------|
----------------------------------------------------------------------------|
----------------------------------------------------------------------------|


--0L-0--0--2--3L-3--2L-2--2--3--5L-5--2-----2--2--------0L----0--0--0-------|
--------------------------------------------------3-------------------------|
----------------------------------------------------------------------------|
----------------------------------------------------------------------------|
----------------------------------------------------------------------------|
----------------------------------------------------------------------------|


--0L-0--0--2--3L-3--3L-3--3--2--------0L-0--0--2--3L-3----------------------|
--------------------------------3L-3--------------------3--------3--3-------|
----------------------------------------------------------------------------|
----------------------------------------------------------------------------|
----------------------------------------------------------------------------|
----------------------------------------------------------------------------|


--0L-0--0--2--3L-3--2L-2--2--3--5L-5--2-----2--2--------0L----0--0--0-------|
--------------------------------------------------3-------------------------|
----------------------------------------------------------------------------|
----------------------------------------------------------------------------|
----------------------------------------------------------------------------|
----------------------------------------------------------------------------|


----------------------------------------------------------------------------|
----------------------------------------------------------------------------|
----------------------------------------------------------------------------|
----------------------------------------------------------------------------|
--2-----2--2--2--2--2-----2-----2-----2-----2--2--2--2--2-----2-----2-------|
--0-----0--0--0--0--0-----0-----0-----0-----0--0--0--0--0-----0-----0-------|


----------------------------------------------------------------------------|
----------------------------------------------------------------------------|
----------------------------------------------------------------------------|
----------------------------------------------------------------------------|
--2-----2--2--2--2--2-----2-----2-----2-----2--2--2--2--2-----2-----2-------|
--0-----0--0--0--0--0-----0-----0-----0-----0--0--0--0--0-----0-----0-------|


----------------------------------------------------------------------------|
----------------------------------------------------------------------------|
----------------------------------------------------------------------------|
----------------------------------------------------------------------------|
--2-----2--2--2--2--2-----2-----2-----2-----2--2--2--2--2-----2-----2-------|
--0-----0--0--0--0--0-----0-----0-----0-----0--0--0--0--0-----0-----0-------|


----------------------------------------------------------------------------|
----------------------------------------------------------------------------|
----------------------------------------------------------------------------|
----------------------------------------------------------------------------|
--2-----2--2--2--2--2-----2-----2-----2-----2--2--2--2--2-----2-----2-------|
--0-----0--0--0--0--0-----0-----0-----0-----0--0--0--0--0-----0-----0-------|


--------------7-----5-----3-----2-----3--------2--------0-------------------|
--5-----------------------------------------------3-------------------------|
----------------------------------------------------------------------------|
----------------------------------------------------------------------------|
----------------------------------------------------------------------------|
----------------------------------------------------------------------------|


--3--------2--0-----------0-----2-----3--------5--3-----2-------------------|
--------------------3-------------------------------------------------------|
----------------------------------------------------------------------------|
----------------------------------------------------------------------------|
----------------------------------------------------------------------------|
----------------------------------------------------------------------------|


--------------7-----5-----3-----2-----3--------2--------0-------------------|
--5-----------------------------------------------3-------------------------|
----------------------------------------------------------------------------|
----------------------------------------------------------------------------|
----------------------------------------------------------------------------|
----------------------------------------------------------------------------|


--3--------------------------2--------0-----------------------------------0-----
--------------------------------------------------------3-----------------------
--------------------------------------------------------------------------------
--------------------------------------------------------------------------------
--------------------------------------------------------------------------------
--------------------------------------------------------------------------------


------------2-----------------2-----3-----2-----0-------------------------------
------------------------------------------------------------------3-------------
--------------------------------------------------------------------------------
--------------------------------------------------------------------------------
--------------------------------------------------------------------------------
--------------------------------------------------------------------------------


----0-------------------------------------------------------|
------------------------------------------------------------|
------------------------------------------------------------|
------------------------------------------------------------|
------------------------------------------------------------|
------------------------------------------------------------|


----------------------------------------------------------------------------|
----------------------------------------------------------------------------|
----------------------------------------------------------------------------|
----------------------------------------------------------------------------|
--2-----2--2--2--2--2-----2-----2-----2-----2--2--2--2--2-----2-----2-------|
--0-----0--0--0--0--0-----0-----0-----0-----0--0--0--0--0-----0-----0-------|


----------------------------------------------------------------------------|
----------------------------------------------------------------------------|
----------------------------------------------------------------------------|
----------------------------------------------------------------------------|
--2-----2--2--2--2--2-----2-----2-----2-----2--2--2--2--2-----2-----2-------|
--0-----0--0--0--0--0-----0-----0-----0-----0--0--0--0--0-----0-----0-------|


----------------------------------------------------------------------------|
----------------------------------------------------------------------------|
----------------------------------------------------------------------------|
----------------------------------------------------------------------------|
--2-----2--2--2--2--2-----2-----2-----2-----2--2--2--2--2-----2-----2-------|
--0-----0--0--0--0--0-----0-----0-----0-----0--0--0--0--0-----0-----0-------|


----------------------------------------------------------------------------|
----------------------------------------------------------------------------|
----------------------------------------------------------------------------|
----------------------------------------------------------------------------|
--2-----2--2--2--2--2-----2-----2-----2-----2--2--2--2--2-----2-----2-------|
--0-----0--0--0--0--0-----0-----0-----0-----0--0--0--0--0-----0-----0-------|


----------------------------------------------------------------------------|
----------------------------------------------------------------------------|
----------------------------------------------------------------------------|
--9-----------------9-----------------9-----------------7-----7-----7-------|
--7-----------------7-----------------7-----------------5-----5-----5-------|
--------0M-0M-0M-0M-------0M-0M-0M-0M-------0M-0M-0M-0M---------------------|


----------------------------------------------------------------------------|
----------------------------------------------------------------------------|
----------------------------------------------------------------------------|
--9-----------------9-----------------9-----------------7-----7-----7-------|
--7-----------------7-----------------7-----------------5-----5-----5-------|
--------0M-0M-0M-0M-------0M-0M-0M-0M-------0M-0M-0M-0M---------------------|


----------------------------------------------------------------------------|
----------------------------------------------------------------------------|
----------------------------------------------------------------------------|
--9-----------------9-----------------9-----------------7-----7-----7-------|
--7-----------------7-----------------7-----------------5-----5-----5-------|
--------0M-0M-0M-0M-------0M-0M-0M-0M-------0M-0M-0M-0M---------------------|


----------------------------------------------------------------------------|
----------------------------------------------------------------------------|
----------------------------------------------------------------------------|
--9-----------------9-----------------9-----------------7-----7-----7-------|
--7-----------------7-----------------7-----------------5-----5-----5-------|
--------0M-0M-0M-0M-------0M-0M-0M-0M-------0M-0M-0M-0M---------------------|


-------|-------|-------|-------|
-------|-------|-------|-------|
-------|-------|-------|-------|
--9L---|--9L---|--9----|-------|
--7L---|--7L---|--7----|-------|
-------|-------|-------|-------|


----------------------------------------------------|
----------------------------------------------------|
----------------------------------------------------|
----------------------------------------------------|
--------7-----7-----------10-9--10----7-------------|
--0--------0-----------0--------------------0--0----|


----------------------------------------------------|
----------------------------------------------------|
----------------------------------------------------|
----------------------------------------------------|
--------7-----7-----------10-9--10----12----10-9----|
--0--------0-----------0----------------------------|


----------------------------------------------------|
----------------------------------------------------|
----------------------------------------------------|
----------------------------------------------------|
--------7-----7-----------10-9--10----7-------------|
--0--------0-----------0--------------------0--0----|


----------------------------------------------------|
----------------------------------------------------|
----------------------------------------------------|
----------------------------------------------------|
--10-9--10----12----------10-9--7-----7-------------|
----------------------------------------------------|


----------------------------------------------------|
----------------------------------------------------|
----------------------------------------------------|
----------------------------------------------------|
--------7-----7-----------10-9--10----7-------------|
--0--------0-----------0--------------------0--0----|


----------------------------------------------------|
----------------------------------------------------|
----------------------------------------------------|
----------------------------------------------------|
--------7-----7-----------10-9--10----12----10-9----|
--0--------0-----------0----------------------------|


----------------------------------------------------|
----------------------------------------------------|
----------------------------------------------------|
----------------------------------------------------|
--------7-----7-----------10-9--10----7-------------|
--0--------0-----------0--------------------0--0----|


----------------------------------------------------||
----------------------------------------------------||
----------------------------------------------------||
----------------------------------------------------||
--10-9--10----12----------10-9--7-----7-------------||
----------------------------------------------------||

comments
We did not receive enough feedback on this tab! Please rate:
print report bad tab
1 2 3 4 5
I want to post or [tab]
guest
You may want to rate the tab now too:
select rating
Please do not post tabs as comments. Select "correction" instead!