Oops, an error
Loading. Please wait.

Morphia - Meaning Forever Part 2 Tab

610 views 3 this week
no commentswrite comment
1 2 3 4 5
please rate
Autoscroll
+/-
esc
set tempo
stop
Contributor
Difficulty
novice
Hey! There's an official Ultimate Guitar app which is ideal
for learning songs when you're away from computer. Get the app
WARNING: You are trying to view
                                    content from Ultimate-Guitar.com
                                    in an unauthorized application,
                                    which is prohibited.

                                    Please use an official Ultimate
                                    Guitar Tabs application for iPhone,
                                    iPad or Android to access legitimate
                                    chords, guitar, bass, and drum tabs
                                    from Ultimate-Guitar.com database.

                                    Type "ultimate guitar tabs" in Apple
                                    App Store's or Android Market's
                                    search to find the application.
Please notice this tab is not written by me.
I found it and noticed it wasn´t on Ultimate-Guitar so that's why I uploaded it. I 
it and noticed that the tab is perfect. The tabber knows the band in real life so i doubt 
are any mistakes in it. Have fun.


Album: Fading Beauty
Tabbed By: Bram Mulder

Intro

E ---------------------------------------------------------------------------|
B -------3-----------3-----------3-----------3-------------------------------|
G -----0---0-------0---0-------0---0-------0---0-----------------------------|
D ---2-------2---2-------2---2-------2---2-------2---------------------------|
A -------------------------3-----------3-------------------------------------|
E -0-----------0-------------------------------------------------------------|


Couplet 1

		“The shallow waters…” (00:09)

E -------------------------------------------------------------------------|
B -------3-----------3-----------3-----------3-----------3-----------3-----|
G -----0---0-------0---0-------0---0-------0---0-------0---0-------0---0---|
D ---2-------2---2-------2---2-------2---2-------2---2-------2---2-------2-|
A -------------------------3-----------3-----------------------------------|
E -0-----------0-----------------------------------0-----------0-----------|


E -------------------------------------------------------------------------|
B -------3-----------3-----------3-----------3-----------3-----------3-----|
G -----0---0-------0---0-------2---2-------2---2-------0---0-------0---0---|
D ---2-------2---2-------2---0-------0---0-------0---2-------2---2-------2-|
A -3-----------3-----------2-----------2-----------3-----------3-----------|
E -------------------------------------------------------------------------|


E  --------------------------------------|
B  ------3-----------3-----------3-------|
G  ----2---2-------2---2-------0---0-----|
D  --0-------0---0-------0---2-------2---|
A  2-----------2-----------3-----------3-|
E  --------------------------------------|

		“This shore upon the lakeside…” (00:40)

E -------------------------------------------------------------------------|
B -------3-----------3-----------3-----------3-----------3-----------3-----|
G -----0---0-------0---0-------0---0-------0---0-------0---0-------0---0---|
D ---2-------2---2-------2---2-------2---2-------2---2-------2---2-------2-|
A -------------------------3-----------3-----------------------------------|
E -0-----------0-----------------------------------0-----------0-----------|


E -------------------------------------------------------------------------|
B -------3-----------3-----------3-----------3-----------3-----------3-----|
G -----0---0-------0---0-------2---2-------2---2-------0---0-------0---0---|
D ---2-------2---2-------2---0-------0---0-------0---2-------2---2-------2-|
A -3-----------3-----------2-----------2-----------3-----------3-----------|
E -------------------------------------------------------------------------|
E  ------------------------------------------------------------------------|
B  ------3-----------3-----------3-----------------------3-----------3-----|
G  ----2---2-------2---2-------0---0-------0-----0-----0---0-------0---0---|
D  --0-------0---0-------0---2-------2---2-----0-----0-------0---0---------|
A  2-----------2-----------3-----------3-----2-----------------------------|
E  ------------------------------------------------3-----------3-----------|


E -------------------------------------------------------------------------|
B -------3-----------3-----------3-----------3-----------3-----------3-----|
G -----0---0-------0---0-------0---0-------0---0-------0---0-------0---0---|
D ---0-------0---0-------0---0-------0---0-------0---0-------0---0-------0-|
A -------------------------------------------------------------------------|
E 3-2----------2-----------3-----------3-----------2-----------2-----------|


E -------------------------------------------------------------------------|
B -------3-----------3-----------3-----------3-----------3-----------3-----|
G -----0---0-------0---0-------0---0-------0---0-------0---0-------0---0---|
D ---2-------2---2-------2---0-------0---0-------0---2-------2---2-------2-|
A -3-----------3-----------------------------------3-----------3-----------|
E -------------------------3-----------3-----------------------------------|

E -------------------------------------------------------------------------|
B ---------3---3--7--------------------------------------------------------|
G -------0---0-------------------------------------------------------------|
D -----2----------0--------------------------------------------------------|
A –2/3---------------------------------------------------------------------|
E -------------------------------------------------------------------------|


The next part is allmost the same…

Couplet 2  (01:42)

E -------------------------------------------------------------------------|
B -------3-----------3-----------3-----------3-----------3-----------3-----|
G -----0---0-------0---0-------0---0-------0---0-------0---0-------0---0---|
D ---2-------2---2-------2---2-------2---2-------2---2-------2---2-------2-|
A -------------------------3-----------3-----------------------------------|
E -0-----------0-----------------------------------0-----------0-----------|


E -------------------------------------------------------------------------|
B -------3-----------3-----------3-----------3-----------3-----------3-----|
G -----0---0-------0---0-------2---2-------2---2-------0---0-------0---0---|
D ---2-------2---2-------2---0-------0---0-------0---2-------2---2-------2-|
A -3-----------3-----------2-----------2-----------3-----------3-----------|
E -------------------------------------------------------------------------|


E  --------------------------------------|
B  ------3-----------3-----------3-------|
G  ----2---2-------2---2-------0---0-----|
D  --0-------0---0-------0---2-------2---|
A  2-----------2-----------3-----------3-|
E  --------------------------------------|

E -------------------------------------------------------------------------|
B -------3-----------3-----------3-----------3-----------3-----------3-----|
G -----0---0-------0---0-------0---0-------0---0-------0---0-------0---0---|
D ---2-------2---2-------2---2-------2---2-------2---2-------2---2-------2-|
A -------------------------3-----------3-----------------------------------|
E -0-----------0-----------------------------------0-----------0-----------|


E -------------------------------------------------------------------------|
B -------3-----------3-----------3-----------3-----------3-----------3-----|
G -----0---0-------0---0-------2---2-------2---2-------0---0-------0---0---|
D ---2-------2---2-------2---0-------0---0-------0---2-------2---2-------2-|
A -3-----------3-----------2-----------2-----------3-----------3-----------|
E -------------------------------------------------------------------------|


E  ------------------------------------------------------------------------|
B  ------3-----------3-----------3-----------------------3-----------3-----|
G  ----2---2-------2---2-------0---0-------0-----0-----0---0-------0---0---|
D  --0-------0---0-------0---2-------2---2-----0-----0-------0---0-------0-|
A  2-----------2-----------3-----------3-----2-----------------------------|
E  ------------------------------------------------3-----------3-----------|


E -------------------------------------------------------------------------|
B -------3-----------3-----------3-----------3-----------3-----------3-----|
G -----0---0-------0---0-------0---0-------0---0-------0---0-------0---0---|
D ---0-------0---0-------0---0-------0---0-------0---0-------0---0-------0-|
A -------------------------------------------------------------------------|
E -2-----------2-----------3-----------3-----------2-----------2-----------|


E -------------------------------------------------------------------------|
B -------3-----------3-----------3-----------3-----------3-----------3-----|
G -----0---0-------0---0-------0---0-------0---0-------0---0-------0---0---|
D ---2-------2---2-------2---0-------0---0-------0---2-------2---2-------2-|
A -3-----------3-----------------------------------3-----------3-----------|
E -------------------------3-----------3-----------------------------------|

E ------------------------------------------------------3------------------|
B ------3-----------3-----------3-----------3-------------1----------------|
G ----0---0-------0---0-------0---0-------0---0-------0-----0--------------|
D --0-------0---0-------0---2-------2---2-------2---2----------------------|
A ------------------------3-----------3-----------3------------------------|
E 3-----------3------------------------------------------------------------|

Here the distortion comes in. Play with it to get that scratchy sound.
(03:29)
Guitar 1
E ---------------------------------------------------------------------------|
B ---------------------------------------------------------------------------|
G ---------------------------------------------------------------------------|
D –14\2--10---------2--4-5-10----10--10-10-10------------9---------9---------|
A –14\2--10---------2--4-5-10----10--10-10-10------------9---------9---------|
E –12\0---8---------0--2-3--8—-8--8---8--8--8--8--10-8-7-7-7-7-7-7-7-7-7-7-7-|

Guitar 2
E --------------------------------------------------------------------------|
B --------------------------------------------------------------------------|
G --------------------------------------------------------------------------|
D -------9-9--10-99---------10\9----9-10-9----------------------------------|
A ---------10------10------------10-------10--------------------------------|
E --------------------------------------------------------------------------|

E -----------------------------------------------------------------------------|
B -----------------------------------------------------------------------------|
G -----------------------------------------------------------------------------|
D -9--------12-10-9—9h10-10--10--10-10-10--10-10-10--------9---------9---------|
A -9---------------8-----10--10--10-10-10--10-10-10--------9---------9---------|
E -7-7-7-7-7--------------8-8-8---8--8--8-8—8—-8--8-8-10-8-7-7-7-7-7-7-7-7-7-7-|

E -----------------------------------------------------------------------------|
B -----------------------------------------------------------------------------|
G -----------------------------------------------------------------------------|
D -9---------9--10--10--10-10-10--------------2----5--10-10-10-10--10-10-10----|
A -9---------9--10--10--10-10-10--------------2----5--10-10-10-10--10-10-10----|
E -7-7-7–7-7-7---8-8-8---8--8--8--8--12-10-9--0----3---8--8--8—8--8-8--8--8----|

E -----------------------------------------------------------------------------|
B -----------------------------------------------------------------------------|
G -----------------------------------------------------------------------------|
D -2-4-5-10----10-10-10-10-10----------9---------9---------9---------9--10-—10-|
A -2-4-5-10----10-10-10-10-10----------9---------9---------9---------9--10-—10-|
E -0-2-3--8--8--8-—8-—8-—8--8--8-10-8--7-7-7-7-7-7-7-7-7-7-7-7-7-7-7-7---8-8-8-|

E -----------------------------------------------------------------------------|
B -----------------------------------------------------------------------------|
G -----------------------------------------------------------------------------|
D -10-10-10--10-10-10---9---------9---------9---------9--12-10-9—9h10--10--10--|
A -10-10-10--10-10-10---9---------9---------9---------9----------------10--10--|
E -8--8--8-8—8—-8--8-8--7-7-7-7-7-7-7-7-7-7-7-7-7-7-7-7-----------------8-8-8--|


E ------------------------------------------------------------------------------|
B ------------------------------------------------------------------------------|
G ------------------------------------------------------------------------------|
D 10-10-10----10-----5---------4---------5---------4---------10--10--10-10-10---|
A 10-10-10----10-----5---------4---------5---------4---------10--10--10-10-10---|
E -8--8--8--8--8-----3---------2---------3---------2----------8-8-8---8--8--8-8-|

E -----------------------------------------------------------------------------|
B -----------------------------------------------------------------------------|
G -----------------------------------------------------------------------------|
D 10----5---------10--10--10-10-10--10----5------10--10--10-10-10----10-5------|
A 10----5---------10--10--10-10-10--10----5------10--10--10-10-10----10-5------|
E -8—---3----------8-8-8---8-–8--8---8--8-3-------8-8-8---8--8--8--8--8-3------|


E -----------------------------------------------------------------------------|
B -----------------------------------------------------------------------------|
G -----------------------------------------------------------------------------|
D --10--10--10-10-10----10—12--------------------------------------------------|
A --10--10--10-10-10----10—12--------------------------------------------------|
E ---8-8-8---8--8--8---8-8—10--------------------------------------------------|
comments
We did not receive enough feedback on this tab! Please rate:
print report bad tab
1 2 3 4 5
I want to post or [tab]
guest
You may want to rate the tab now too:
select rating
Please do not post tabs as comments. Select "correction" instead!