Oops, an error
Loading. Please wait.

Motoi Sakuraba - Field Of Exper Tab

210 views 3 this week
no commentswrite comment
1 2 3 4 5
excellent!
x 1
add to favorites launch autoscroll
font size
0
reset
Autoscroll
+/-
esc
set tempo
stop
Contributor
Difficulty
intermediate
WARNING: You are trying to view
                                    content from Ultimate-Guitar.com
                                    in an unauthorized application,
                                    which is prohibited.

                                    Please use an official Ultimate
                                    Guitar Tabs application for iPhone,
                                    iPad or Android to access legitimate
                                    chords, guitar, bass, and drum tabs
                                    from Ultimate-Guitar.com database.

                                    Type "ultimate guitar tabs" in Apple
                                    App Store's or Android Market's
                                    search to find the application.
-------------------------------------------------------------------------------
                             FIELD OF EXPER - Motoi Sakuraba/Star Ocean: The Second Story
-------------------------------------------------------------------------------
Tabbed by: Metal Axe

Tuning:EADGBe

e|---------------------------------------------------------------------------|
B|-------------------------------------------------------15--13--12--12h13---|
G|--9-----11h12--11------11--9-------9-----12--11h12h14----------------------|
D|-----9-------------12---------9-------9------------------------------------|
A|---------------------------------------------------------------------------|
E|---------------------------------------------------------------------------|

e|--------------|
B|--------------|
G|--12----11----|
D|--------------|
A|--------------|
E|--------------|

e|---------------------------------------------------------------------------|
B|-------------------------------------------------------15--13--12--12h13---|
G|--9-----11h12--11------11--9-------9-----12--11h12h14----------------------|
D|-----9-------------12---------9-------9------------------------------------|
A|---------------------------------------------------------------------------|
E|---------------------------------------------------------------------------|

e|--------------|
B|--------------|
G|--12----11----|
D|--------------|
A|--------------|
E|--------------|

e|--12-12---10------------------------------------------------------10---12--|
B|-------------13-12---10---13--12-----------10---------13----14-------------|
G|-----------------------------------11--12-------12-------------------------|
D|---------------------------------------------------------------------------|
A|---------------------------------------------------------------------------|
E|---------------------------------------------------------------------------|

e|---------------------------------------------------------------------------|
B|---------------------------------------------------------------------------|
G|--10--9--------------9---9----------7h9p7---10--9--------------------------|
D|---------12------12---------12--10-----------------12--11------------------|
A|-------------12----------------------------------------------12------------|
E|---------------------------------------------------------------------------|

e|---------------------------------------------------------------------------|
B|---------------------------------------------------------------------------|
G|--10--9--------------9---9----------7h9p7---10--9--------------------------|
D|---------12------12---------12--10-----------------12--11------------------|
A|-------------12----------------------------------------------12------------|
E|---------------------------------------------------------------------------|

e|---------------------------------------------------------------------------|
B|-------------11----10h11h13------------------------------------------------|
G|------9--10--------------------9----12----11----10----9----12----11----10--|
D|--12-----------------------------------------------------------------------|
A|---------------------------------------------------------------------------|
E|---------------------------------------------------------------------------|

e|---------------------------------------------------------------------------|
B|-------------------------------------------------------15--13--12--12h13---|
G|--9-----11h12--11------11--9-------9-----12--11h12h14----------------------|
D|-----9-------------12---------9-------9------------------------------------|
A|---------------------------------------------------------------------------|
E|---------------------------------------------------------------------------|

e|--------------| 
B|--------------|
G|--12----11----|
D|--------------|
A|--------------|
E|--------------|

e|--12-12---10------------------------------------------------------10---12--|
B|-------------13-12---10---13--12-----------10---------13----14-------------|
G|-----------------------------------11--12-------12-------------------------|
D|---------------------------------------------------------------------------|
A|---------------------------------------------------------------------------|
E|---------------------------------------------------------------------------|

e|---------------------------------------------------------------------------|
B|---------------------------------------------------------------------------|
G|--10--9--------------9---9----------7h9p7---10--9--------------------------|
D|---------12------12---------12--10-----------------12--11------------------|
A|-------------12----------------------------------------------12------------|
E|---------------------------------------------------------------------------|

e|---------------------------------------------------------------------------|
B|---------------------------------------------------------------------------|
G|--10--9--------------9---9----------7h9p7---10--9--------------------------|
D|---------12------12---------12--10-----------------12--11------------------|
A|-------------12----------------------------------------------12------------|
E|---------------------------------------------------------------------------|

e|---------------------------------------------------------------------------|
B|-------------11----10h11h13------------------------------------------------|
G|------9--10--------------------9----12----11----10----9----12----11----10--|
D|--12-----------------------------------------------------------------------|
A|---------------------------------------------------------------------------|
E|---------------------------------------------------------------------------|

e|---------------------------------------------------|
B|---------------------------------------------------|
G|----9----12----11----10----11----12----13----14----|
D|---------------------------------------------------|
A|---------------------------------------------------|
E|---------------------------------------------------|

e|---------------------------------------------------------------------------|
B|------13--12--------------------------13--12-------------------------------|
G|--------------12--14------12------------------12--14------12---------------|
D|----------------------14------14----------------------14------14-----------|
A|--12------------------------------12------------------------------12-------|
E|---------------------------------------------------------------------------|

e|---------------------------------------------------------------------------|
B|------14------------------------------14-----------------------------------|
G|----------16------14----------------------16------14-----------------------|
D|--------------16------16--17--16--------------16------16--17--16-----------|
A|---------------------------------------------------------------------------|
E|--14------------------------------14---------------------------------------|

e|---------------------------------------------------------------------------|
B|------13--12--------------------------13--12-------------------------------|
G|--------------12--14------12------------------12--14------12---------------|
D|----------------------14------14----------------------14------14-----------|
A|--12------------------------------12------------------------------12-------|
E|---------------------------------------------------------------------------|

e|---------------------------------------------------------------------------|
B|------16--15--------------------------16--15-------------------------------|
G|--------------15--17------15------------------15--17------15---------------|
D|----------------------17------17----------------------17------17-----------|
A|--15------------------------------15---------------------------------------|
E|---------------------------------------------------------------------------|

e|---------------------------------------------------------------------------|
B|------13--12--------------------------13--12-------------------------------|
G|--------------12--14------12------------------12--14------12---------------|
D|----------------------14------14----------------------14------14-----------|
A|--12------------------------------12------------------------------12-------|
E|---------------------------------------------------------------------------|

e|---------------------------------------------------------------------------|
B|------14------------------------------14-----------------------------------|
G|----------16------14----------------------16------14-----------------------|
D|--------------16------16--17--16--------------16------16--17--16-----------|
A|---------------------------------------------------------------------------|
E|--14------------------------------14---------------------------------------|

e|---------------------------------------------------------------------------|
B|------13--12--------------------------13--12-------------------------------|
G|--------------12--14------12------------------12--14------12---------------|
D|----------------------14------14----------------------14------14-----------|
A|--12------------------------------12------------------------------12-------|
E|---------------------------------------------------------------------------|

e|---------------------------------------------------------------------------|
B|------16--15--------------------------16--15-------------------------------|
G|--------------15--17------15------------------15--17------15---------------|
D|----------------------17------17----------------------17------17-----------|
A|--15------------------------------15---------------------------------------|
E|---------------------------------------------------------------------------|

e|---------------------------------------------------------------------------|
B|------13--12--------------------------13--12-------------------------------|
G|--------------12--14------12------------------12--14------12---------------|
D|----------------------14------14----------------------14------14-----------|
A|--12------------------------------12------------------------------12-------|
E|---------------------------------------------------------------------------|

e|---------------------------------------------------------------------------|
B|------14------------------------------14-----------------------------------|
G|----------16------14----------------------16------14-----------------------|
D|--------------16------16--17--16--------------16------16--17--16-----------|
A|---------------------------------------------------------------------------|
E|--14------------------------------14---------------------------------------|

e|---------------------------------------------------------------------------|
B|------13--12--------------------------13--12-------------------------------|
G|--------------12--14------12------------------12--14------12---------------|
D|----------------------14------14----------------------14------14-----------|
A|--12------------------------------12------------------------------12-------|
E|---------------------------------------------------------------------------|

e|---------------------------------------------------------------------------|
B|------16--15--------------------------16--15-------------------------------|
G|--------------15--17------15------------------15--17------15---------------|
D|----------------------17------17----------------------17------17-----------|
A|--15------------------------------15---------------------------------------|
E|---------------------------------------------------------------------------|

e|---------------------------------------------------------------------------|
B|-------------------10----------10---------------------------10-------------|
G|--9-------12--11-----------9--------12-----9-------12--11-----------------9|
D|------12---------------12----------------------12---------------12---12----|
A|---------------------------------------------------------------------------|
E|---------------------------------------------------------------------------|

e|---------------------------------------------------------------------------|
B|-------------------10----------10---------------------------10-------------|
G|--9-------12--11-----------9--------12-----9-------12--11-----------------9|
D|------12---------------12----------------------12---------------12---12----|
A|---------------------------------------------------------------------------|
E|---------------------------------------------------------------------------|

e|---------------------------------------------------------------------------|
B|------13--12--------------------------13--12-------------------------------|
G|--------------12--14------12------------------12--14------12---------------|
D|----------------------14------14----------------------14------14-----------|
A|--12------------------------------12------------------------------12-------|
E|---------------------------------------------------------------------------|

e|---------------------------------------------------------------------------|
B|------14------------------------------14-----------------------------------|
G|----------16------14----------------------16------14-----------------------|
D|--------------16------16--17--16--------------16------16--17--16-----------|
A|---------------------------------------------------------------------------|
E|--14------------------------------14---------------------------------------|

e|---------------------------------------------------------------------------|
B|------13--12--------------------------13--12-------------------------------|
G|--------------12--14------12------------------12--14------12---------------|
D|----------------------14------14----------------------14------14-----------|
A|--12------------------------------12------------------------------12-------|
E|---------------------------------------------------------------------------|

e|---------------------------------------------------------------------------|
B|------16--15--------------------------16--15-------------------------------|
G|--------------15--17------15------------------15--17------15---------------|
D|----------------------17------17----------------------17------17-----------|
A|--15------------------------------15---------------------------------------|
E|---------------------------------------------------------------------------|

The 4 above bars repeat while this is also played.

e|-----------------12-----10------------------9------------------------------|
B|---10----12--13-------------13--12--10--12---------------9-----------------|
G|-----------------------------------------------11--------------------------|
D|---------------------------------------------------------------------------|
A|---------------------------------------------------------------------------|
E|---------------------------------------------------------------------------|

e|-----------------12-----15--14--------------11--15-----13------------------|
B|---10----12--13-----------------15--13--15---------------------------------|
G|---------------------------------------------------------------------------|
D|---------------------------------------------------------------------------|
A|---------------------------------------------------------------------------|
E|---------------------------------------------------------------------------|

Song begins to fades out.

e|---------------------------------------------------------------------------|
B|-------------------------------------------------------15--13--12--12h13---|
G|--9-----11h12--11------11--9-------9-----12--11h12h14----------------------|
D|-----9-------------12---------9-------9------------------------------------|
A|---------------------------------------------------------------------------|
E|---------------------------------------------------------------------------|

e|--------------|
B|--------------|
G|--12----11----|
D|--------------|
A|--------------|
E|--------------|

************************************

| h   hammer-on
| p   pull-off

************************************
comments
We did not receive enough feedback on this tab! Please rate:
print report bad tab
1 2 3 4 5
I want to post or [tab]
guest
You may want to rate the tab now too:
select rating
Please do not post tabs as comments. Select "correction" instead!