Oops, an error
Loading. Please wait.

Myohmy - Soyou Call This Hard Tab

93 views 3 this week
no commentswrite comment
1 2 3 4 5
please rate
Autoscroll
+/-
esc
set tempo
stop
Contributor
Difficulty
Tuning
intermediate
C G C F A D
Hey! There's an official Ultimate Guitar app which is ideal
for learning songs when you're away from computer. Get the app
WARNING: You are trying to view
                                    content from Ultimate-Guitar.com
                                    in an unauthorized application,
                                    which is prohibited.

                                    Please use an official Ultimate
                                    Guitar Tabs application for iPhone,
                                    iPad or Android to access legitimate
                                    chords, guitar, bass, and drum tabs
                                    from Ultimate-Guitar.com database.

                                    Type "ultimate guitar tabs" in Apple
                                    App Store's or Android Market's
                                    search to find the application.
INTRO:
e|---------------------------------------------------------------|
B|---------------------------------------------------------------|
G|---------------------------------------------------------------|
D|10x10-x-7888-xx-8-----8-xx-xx-888-xx-8-------------------------|
A|8-x-8-x-5666-xx-6-----6-xx-xx-666-xx-6-------------------------|
E|8-x-8-x-5666-xx-6-----6-xx-xx-666-xx-6-------------------------|

e|---------------------------------------------------------------|
B|---------------------------------------------------------------|
G|---------------------------------------------------------------|
D|10x10-x-7888-xx-8-xx-xx-8-xxx0-888-xxx-5x7x3x5-----------------|
A|8-x-8-x-5666-xx-6-xx-xx-6-xxx0-666-xxx-5x7x3x5-----------------|
E|8-x-8-x-5666-xx-6-xx-xx-6-xxx0-666-xxx-5x7x3x5-----------------|

VERSE:
e|---------------------------------------------------------------|
B|---------------------------------------------------------------|
G|---------------------------------------------------------------|
D|1-0-x-x-x-x---x-x-x-xxx-x-8\3xxxxx-5x7x3x5---------------------|
A|1-0-x-x-x-x---x-x-x-xxx-x-8\3xxxxx-5x7x3x5---------------------|
E|1-0-x-x-x-x---x-x-x-xxx-x-8\3xxxxx-5x7x3x5---------------------|

e|---------------------------------------------------------------|
B|---------------------------------------------------------------|
G|---------------------------------------------------------------|
D|1-0-x-x-xxx-x-7-7-x-6-6-x-33-3x3x3x-3x3x3x-3x-5x7x3x5-0--------|
A|1-0-x-x-xxx-x-5-6-x-4-5-x-33-3x3x3x-3x3x3x-3x-5x7x3x5-0--------|
E|1-0-x-x-xxx-x---6-x---5-x-33-3x3x3x-3x3x3x-3x-5x7x3x5-0--------|

Transition(breakdown):

e|---------------------------------------------------------------|
B|---------------------------------------------------------------|
G|---------------------------------------------------------------|
D|---------------------------------------------------------------|
A|-------------333-----------------------------------------------|
E|3x3x3x-6x6x6x---4/8--------------------------------------------|

e|---------------------------------------------------------------|
B|---------------------------------------------------------------|
G|---------------------------------------------------------------|
D|xxx-xxx--xxx-xxx-0x0x0x-0x0x0x-xxx-xxx-------------------------|
A|xxx-xxx--xxx-xxx-0x0x0x-0x0x0x-xxx-xxx-------------------------|
E|xxx-xxx--xxx-xxx-1x1x1x-1x1x1x-xxx-xxx-------------------------|

e|---------------------------------------------------------------|
B|---------------------------------------------------------------|
G|---------------------------------------------------------------|
D|5xxxxxx-8-7-8-12xxxx-12---10xxxx-10----------------------------|
A|3xxxxxx-6-5-6-10xxxx---10-8xxxx----8---------------------------|
E|3xxxxxx-6-5-6-10xxxx------8xxxx--------------------------------|

Chorus:

e|---------------------------------------------------------|
B|---------------------------------------------------------|
G|---------------------------------------------------------|
D|00-xx---------3xxxx-----88-8xx-------1010-10xx-----------|
A|00-xx---------3xxxx-555-88-8xx-10-10-1010-10xx-12-10-8---|
E|00-xx-3p0-3p0-3xxxx-----88-8xx-------1010-10xx-----------|

e|---------------------------------------------------------|
B|---------------------------------------------------------|
G|---------------------------------------------------------|
D|00-xx---------3xxxx-----88-8xx-------x-7-x-7-------------|
A|00-xx---------3xxxx-555-88-8xx-10-10-x-7-x--8-7h8h7------|
E|00-xx-3p0-3p0-3xxxx-----88-8xx-------x-7-x---------------|

e|---------------------------------------------------------|
B|1010--101010-10-10-101010-1010-1010-66-66----------------|
G|99--999-9-9-999-99-99--55-55-----------------------------|
D|00x-777-7-7-777-88-88--33-33-----------------------------|
A|00x-888-8-8-888-88-88--33-33-----------------------------|
E|00x-000-0-0-000-88-88--33-33-----------------------------|

e|---------------------------------------------------------|
B|1010--101010-10-10-101010-1010-1010----------------------|
G|99--999-9-9-999-99-99------------------------------------|
D|00x-777-7-7-777-88-88--5x7-3x5---------------------------|
A|00x-888-8-8-888-88-88--5x7-3x5---------------------------|
E|00x-000-0-0-000-88-88--5x7-3x5---------------------------|

Verse2:(x2)

e|---------------------------------------------------------------|
B|---------------------------------------------------------------|
G|---------------------------------------------------------------|
D|1-0-x-x-x-x---x-x-x-xxx-x-8\3xxxxx-5x7x3x5---------------------|
A|1-0-x-x-x-x---x-x-x-xxx-x-8\3xxxxx-5x7x3x5---------------------|
E|1-0-x-x-x-x---x-x-x-xxx-x-8\3xxxxx-5x7x3x5---------------------|

Transition(breakdown)2

e|---------------------------------------------------------------|
B|---------------------------------------------------------------|
G|--------------10-----------------------------------10----------|
D|xxxxxx-xxxxxx---7-8-xxxxxx-xxxxxx-0~~xxxxxx-xxxxxx---7-8-------|
A|xxxxxx-xxxxxx----7--xxxxxx-xxxxxx-0~~xxxxxx-xxxxxx----7--------|
E|xxxxxx-xxxxxx-------xxxxxx-xxxxxx-1~~xxxxxx-xxxxxx-------------|

e|----------------------------|
B|----------------------------|
G|----------------------------|
D|xxxxxx-xxxxxx-10\5----------|
A|xxxxxx-xxxxxx-10\5----------|
E|xxxxxx-xxxxxx-10\5----------|

Chorus2:

e|---------------------------------------------------------|
B|---------------------------------------------------------|
G|---------------------------------------------------------|
D|00-xx---------3xxxx-----88-8xx-------1010-10xx-----------|
A|00-xx---------3xxxx-555-88-8xx-10-10-1010-10xx-12-10-8---|
E|00-xx-3p0-3p0-3xxxx-----88-8xx-------1010-10xx-----------|

e|---------------------------------------------------------|
B|---------------------------------------------------------|
G|---------------------------------------------------------|
D|00-xx---------3xxxx-----88-8xx-------x-7-x-7-------------|
A|00-xx---------3xxxx-555-88-8xx-10-10-x-7-x--8-7h8h7------|
E|00-xx-3p0-3p0-3xxxx-----88-8xx-------x-7-x---------------|

e|---------------------------------------------------------|
B|1010--101010-10-10-101010-1010-1010-66-66----------------|
G|99--999-9-9-999-99-99--55-55-----------------------------|
D|00x-777-7-7-777-88-88--33-33-----------------------------|
A|00x-888-8-8-888-88-88--33-33-----------------------------|
E|00x-000-0-0-000-88-88--33-33-----------------------------|

e|---------------------------------------------------------|
B|1010--101010-10-10-101010-1010-1010-66-66~~~~~-----------|
G|99--999-9-9-999-99-99--55-55~~~~~------------------------|
D|00x-777-7-7-777-88-88--33-33~~~~~------------------------|
A|00x-888-8-8-888-88-88--33-33~~~~~------------------------|
E|00x-000-0-0-000-88-88--33-33~~~~~------------------------|

Bridge:

e|---------------------------------------------------------------|
B|---------------------------------------------------------------|
G|---------------------------------------------------------------|
D|10~10\7~77-10~10\7-7777/121212-10~10\7~77-10~10\5~55555/777----|
A|8~8\5~55-8~8\5-5555/101010-8~8\5~55-8~8\3~33333/555------------|
E|8~8\5~55-8~8\5-5555/101010-8~8\5~55-8~8\3~33333/555------------|

e|---------------------------------------------------------------|
B|---------------------------------------------------------------|
G|---------------------------------------------------------------|
D|5xxxx5h8-----x-0-8xxxxxx1010\5xxxx5h8----x-0-10xxx1010---------|
A|5xxxx5h8-5p0-x-0-8xxxxxx88\5xxxx5h8-5p0-x-0-8xxx88-------------|
E|5xxxx5h8-----x-0-8xxxxxx88\5xxxx5h8-----x-0-8xxx88-------------|

e|---------------------------------------------------------------|
B|---------------------------------------------------------------|
G|---------------------------------------------------------------|
D|5xxxx5h8-----x-0-8xxxxxx1010\7xx7x77-x-5~5~~~5-----------------|
A|5xxxx5h8-5p0-x-0-8xxxxxx88\5xx5x55-x-3~~~3~~~3-----------------|
E|5xxxx5h8-----x-0-8xxxxxx88\5xx5x55-x-3~~~~3~~~3----------------|

Bridge(breakdown)

e|---------------------------------------------------------------|
B|---------------------------------------------------------------|
G|---------------------------------------------------------------|
D|0-x--xxx--xxxx--x--x-x--xxx--xxxx--x----x~~x~~xxx~~xxxx~~x-----|
A|0-x--xxx--xxxx--x--x-x--xxx--xxxx--x----x~~x~~xxx~~xxxx~~x-----|
E|0-x-1xxx-1xxxx-1x--x-x-1xxx-1xxxx-1x---1x~1x~1xxx~1xxxx~1x-----|


e|-------------------|--------------------------------------------|
B|-------X2---------|---------------------------------------------|
G|-------------------|--------------------------------------------|
D|0-x-----0-xxxx-----|0-x-----0-xxxx-4-4-5-5-0-x-----------0------|
A|0-x-5---0-xxxx-3-3b|0-x-5---0-xxxx-2-3-3-4-0-x-5---------0------|
E|0-x--6b-0-xxxx--4--|0-x--6b-0-xxxx---3---4-0-x--6-5b~~~~~0------|

Transition:

e|---------------------------------------------------------------|
B|---------------------------------------------------------------|
G|----0-------0-----------------------------------X2-------------|
D|-6-6-6-6-6---6-8--8--7--8-----8--7-----------------------------|
A|--8---8-8-88--8-10-10-88-10-10-10-88---------------------------|
E|0~~~~~~~~~~~~~~~~~~~~~~~~~~~--------0~~~~~~~~------------------|

Outro:

e|---------------------------------------------------------------|
B|---------------------------------------------------------------|
G|--------------------------------------------X4-----------------|
D|77777777-777777-10-------55555550------------------------------|
A|88888888-888888-88888888-33333330------------------------------|
E|00000000-000000-88888888-33333330------------------------------|

e|---------------------------------------------------------------|
B|----------------------------X2---------------------------------|
G|---------------------------------------------------------------|
D|0-xxxxxx-0-xxxx-0-7----12----10-10xxxxxx-10-10xxxx10\5555555---|
A|0-xxxxxx-0-xxxx-0--8/10--10-8---8xxxxxx-8-8xxxx8\3333333-------|
E|0-xxxxxx-0-xxxx-0---------------8xxxxxx-8-8xxxx8\3333333-------|

e|------------------|-------------------------------------------------|
B|------------------|-------------------------------------------------|
G|--------X4-------|--------------------------------------------------|
D|------------------|1p0-00-xx-1111p0-00-xx-1111p0-00-xx-1111/4444/666|
A|------------------|1p0-00-xx-1111p0-00-xx-1111p0-00-xx-1111/4444/666|
E|333-6666-222222220|1p0-00-xx-1111p0-00-xx-1111p0-00-xx-1111/4444/666|

comments
We did not receive enough feedback on this tab! Please rate:
print report bad tab
1 2 3 4 5
I want to post or [tab]
guest
You may want to rate the tab now too:
select rating
Please do not post tabs as comments. Select "correction" instead!