Oops, an error
Loading. Please wait.

Next - Love Story Tab

ver1
ver1

Whole song

Interactive

More versions @911Tabs.com
4,797 views 15 this week
no commentswrite comment
1 2 3 4 5
excellent!
x 1
Autoscroll
+/-
esc
set tempo
stop
Contributor
WARNING: You are trying to view
                                    content from Ultimate-Guitar.com
                                    in an unauthorized application,
                                    which is prohibited.

                                    Please use an official Ultimate
                                    Guitar Tabs application for iPhone,
                                    iPad or Android to access legitimate
                                    chords, guitar, bass, and drum tabs
                                    from Ultimate-Guitar.com database.

                                    Type "ultimate guitar tabs" in Apple
                                    App Store's or Android Market's
                                    search to find the application.
Its not the Novasonic version but it is the actual version without the improvision 
of guitarist Kim Seh Hwang

Hope you guys who couldn't find this tab finaly knows someone found it for you guys

add me on myspace xD
myspace.com/lighter509 xD


Distortion (Guitar 1)


  W H        E   E   E   E      E   E   E   E   H         
E|--------------------------|----------------------------|
B|--------------------------|----------------------------|
G|----------------------14--|--17----------17--17--------|
D|------------------14------|------14--14----------------|
A|--------------15----------|----------------------------|
e|--------------------------|----------------------------|


  E   E   E   E   E   E   E   E      E   E   E   E   H         
--L------------------------------|----------------------------|
---------------------------------|----------------------------|
-------------17--17--------------|--------------16--16--------|
-----14--14----------14--15--14--|--12--12--12----------------|
---------------------------------|----------------------------|
---------------------------------|----------------------------|


  E   E   E   E   E   E   E   E      E   E   E   E   H         
--L------------------------------|----------------------------|
---------------------------------|----------------------------|
-------------16--16--------------|--------------14--14--------|
-----12--12----------12--14--12--|--10--10--10----------------|
---------------------------------|----------------------------|
---------------------------------|----------------------------|


  E   E   E   E   E   E   E   E     E  E  E   E   H         
--L------------------------------|-------------------------|
---------------------------------|-------------------------|
-------------14--14--------------|-----------13--13--------|
-----10--10----------10--12--10--|--9--9--9----------------|
---------------------------------|-------------------------|
---------------------------------|-------------------------|


  Q     E.  T T  E.  T T  E.  T T     Q    S S  S T  Q    T  S T  S  S T  
--L---------L--------L--------L---|--------L--------------L--------------|
----------------------------------|--------------------------------------|
-------14-------16----------------|-------------------------13---14-16---|
-------------------------14-------|--14--------14---16-------------------|
----------------------------------|--------------------------------------|
----------------------------------|--------------------------------------|


   E.   S  E   E   H           E   E   E   E   E   E   E   E   
----------------------------|--L------------------------------|
----------------------------|---------------------------------|
--17----------17--17--------|-------------17--17--------------|
-------14-14----------------|-----14--14----------14--15--14--|
----------------------------|---------------------------------|
----------------------------|---------------------------------|


  S T  S  S T  E   S  H        S    E   E   E   E   E   E   E   E   
--L----------------------------L-|--L------------------------------|
---------------------------------|---------------------------------|
------------------16-16----------|-------------16--16--------------|
------12-14---12-----------------|-----12--12----------12--14--12--|
---------------------------------|---------------------------------|
---------------------------------|---------------------------------|


  E   E   E   E   H           E   E   E   E   Q    S  S  S  S  
---------------------------|--L--------------------L----------|
---------------------------|----------------------------------|
-------------14--14--------|-------------14--14---------------|
-----10--10----------------|-----10--10--------------10-12-10-|
---------------------------|----------------------------------|
---------------------------|----------------------------------|


  S T S  S T E   S  H        S    E  T S.  Q     Q     Q     
-----------------------------L-|--L--L----------------------|
-------------------------------|----------------------------|
----------------13-13----------|----------14----16----13----|
--L---9-10---9-----------------|----------------------------|
-------------------------------|----------------------------|
-------------------------------|----------------------------|


   H.           S T  S  S T     E   Q     E   Q     Q     
----------------L---10-12---|------------10--12----------|
--14------------------------|--12--10--------------10----|
----------------------------|----------------------------|
----------------------------|----------------------------|
----------------------------|----------------------------|
----------------------------|----------------------------|


   E   E   E   E   Q    S  S  S  S     E.   S  Q    S. T  E   E   E   
--13----------13--13----L----13----|---------------------10--13--10--|
------10--10-----------------------|-------12-12----L----------------|
--------------------------14----14-|--14-----------------------------|
-----------------------------------|---------------------------------|
-----------------------------------|---------------------------------|
-----------------------------------|---------------------------------|


   H        E  E   E  E     E.   S  Q.      E   E   E   
--12--------L-----12-----|---------------------12------|
---------------8------8--|--8---10-10------13------13--|
-------------------------|-----------------------------|
-------------------------|-----------------------------|
-------------------------|-----------------------------|
-------------------------|-----------------------------|


   H        E   E   E   E      Q.      E   E   E   E   E   
---------------------------|------------------------------|
--15--------L--12--15--12--|--13------15--17--------------|
---------------------------|------------------14--13--14--|
---------------------------|------------------------------|
---------------------------|------------------------------|
---------------------------|------------------------------|


   E   E   E   E   Q    T T  S  S  S     Q     Q.      E   E.   S  
--13----------13--13----L------------|----------------------------|
------10--10-------------------10-13-|--13----12------13--15------|
----------------------------12-------|----------------------------|
-------------------------------------|-------------------------15-|
-------------------------------------|----------------------------|
-------------------------------------|----------------------------|


   H        E   E   E   E      Q     H         S T  S T  T  T  
---------------------------|----------------------------------|
---------------------------|----------------------------------|
---------------------------|--16----14--------14---12---------|
--14-----------14--15--17--|----------------------------15-14-|
---------------------------|----------------------------------|
---------------------------|----------------------------------|


   H        E   E   E   E      Q.     S T T  Q     Q        H.           Q     
---------------------------|----------L-----------------|---------------------|
---------------------------|----------------------------|---------------------|
---------------11--14--11--|--13------------17----17----|--14-----------------|
--13-----------------------|------------2-2-------------|---------------------|
---------------------------|----------------------------|---------------------|
---------------------------|----------------------------|---------------------|


  T T T T T T T T T T T T T T T T T T T  T  T  T  T  T  Q     
------------------------1---0-1-5-1-3-7--8-10-12-13-13-13----|
--------1-------1-0-1-3---3---3-----5---10----13----13-------|
----0-2-----0-2-------4--------------------------------------|
--3---4---3---4----------------------------------------------|
-------------------------------------------------------------|
-------------------------------------------------------------|


   E.   S  S T  S. S  S. S. Q    S    E.   S  S. S. S  E   E.   S  S S  
---------------------10-13-17----L-|--L---15-13-13-15-------------10-8-|
----------10---12-13---------------|------------------15--13---13------|
--10---12--------------------------|-----------------------------------|
-----------------------------------|-----------------------------------|
-----------------------------------|-----------------------------------|
-----------------------------------|-----------------------------------|


   E.   S  S  S  S  S  S  S  E   E.   T  T  
--12---13-12-------------------------12-13-|
-------------13-------13-------------------|
----------------14-12----14-14--14---------|
-------------------------------------------|
-------------------------------------------|
-------------------------------------------|


   E  T  T  T  T  T  T  H        T  S. S     S  Q     E   S  Q    S S  E   
--17--L-15-13-12-13-15-12--------L-------|--------------------------------|
-----------------------------------15-13-|--13-13----12--13-12----L-------|
-----------------------------------------|----------------------------11--|
-----------------------------------------|--------------------------9-----|
-----------------------------------------|--------------------------------|
-----------------------------------------|--------------------------------|


   Q    S.  S  S. S T  Q     S  S. 
----------------------------------|
--------------12-15---15----13-12-|
--13----9--13---------------------|
----------------------------------|
----------------------------------|
----------------------------------|


   Q.     S T T T T T T T T T  T T  T  T  T  T  T  T  T  
----------L---------------1-5--8-7-10-13-17-------15-19-|
--10------------------5-3-3-7-10-8-12-15-19----17-17-20-|
--------------------5-5-4-------------------17-17-------|
----------------0-7-7-----------------------19----------|
------------7-7-8-9-------------------------------------|
--------------------------------------------------------|


   T  T  T  T  T  T  T  H.           T    W                   W                 
-----17-16-19-17-20-19-22--------------|-------------------|-------------------|
--19-19-17-21-19-22-20-24------------L-|--L----------------|--L----------------|
--20-----------------------------------|-------------------|-------------------|
---------------------------------------|-------------------|-------------------|
---------------------------------------|-------------------|-------------------|
---------------------------------------|-------------------|-------------------|


   S  T  T  T  T  T  T  T  T  T  T  T  T  T  T  S T  T E.   T  T  E   
--22-20-22-19-17----------------12----10-------10-8----8---20-20-20--|
-----------20-19-20-18-17-18-15----13----12-13------10---------------|
-----------------21-19----16----14----12-----------------------------|
---------------------------------------------------------------------|
---------------------------------------------------------------------|
---------------------------------------------------------------------|


  T  T  T  E  T  T T  T  T  S T  T  E.   S  Q     
--L-17-15-17--L-15-------------------------------|
---------------------17-17-17--------------17----|
--------------------------------17-17---17-------|
-------------------------------------------------|
-------------------------------------------------|
-------------------------------------------------|


   E.   S  E.   S  Q    S  S  S  S     Q    S  E   T  T  S T  Q     S  S T  
-----------------------------------|--------------------10---10------------|
--------------------------------12-|--13----L-13--12-10------------13-12---|
-------14-12-----------------14----|---------------------------------------|
---------------14-12----L-14-------|---------------------------------------|
--17-------------------------------|---------------------------------------|
-----------------------------------|---------------------------------------|


   Q.     T  S. Q     E  T  T  S  
----------L-17-20----17--L-17-17-|
--12-----------------------------|
---------------------------------|
---------------------------------|
---------------------------------|
---------------------------------|


   S  T  T  S  T  T  S  T  T  S  T  T  T  S  T  S  S  Q     
--17-17-17-17-17-17-17-17-17-17-17-17-17-17-15-15-20-20----|
-----------------------------------------------------------|
-----------------------------------------------------------|
-----------------------------------------------------------|
-----------------------------------------------------------|
-----------------------------------------------------------|


   E   E   E   E   Q    S  S  S  S     E.  S Q.     E  E  E   
-----------------------------------|-------------------1-----|
-----------------------------------|-------0-0------3-----3--|
-----------------------------10----|-------------------------|
--------------15--15----L----------|-------------------------|
--20----------------------12----12-|--12---------------------|
------17--17-----------------------|-------------------------|


  H        E  E  E  E     E.  S Q.     E  E  E     H        E  E  E  E   
--0--------L-----0-----|------------------0-----|-----------------------|
-----------------------|---------------1-----1--|--3--------L--0--3--0--|
--------------0-----0--|--0---2-2---------------|-----------------------|
-----------------------|------------------------|-----------------------|
-----------------------|------------------------|-----------------------|
-----------------------|------------------------|-----------------------|


  T T T T T T T T T T T T T T T T T T T T T T T T T T T T T T T T  
----------------------------------0-0-0-0-------------------------|
--2-2-2-2-2-2-2-2-2-2-2-2-3-3-3-3---0---0-------------------------|
----1---1---1---1---1---1---2---2---------2-2-2-2-1-1-1-1-2-2-2-2-|
--------------------------------------------2---2---1---1---2---2-|
------------------------------------------------------------------|
------------------------------------------------------------------|


  E  E  E  E  Q    T T S S S    Q    Q.     E  T E.  T  
--1--------1--1----L---------|-------------------------|
---------------------------1-|--1----0------1----3-----|
-----2--2--------------0-2---|-------------------------|
-----------------------------|-----------------------3-|
-----------------------------|-------------------------|
-----------------------------|-------------------------|


  H        E  T S. E  E     T Q.     S. Q    T S S T T T  
-------------------------|-------------------------------|
-------------------------|----0------L-------------------|
----------------------0--|--------------2------2-0-------|
--2--------L----2--3-----|---------------------------3-2-|
-------------------------|-------------------------------|
-------------------------|-------------------------------|


  H        E  T S. E  E     T Q.     T T T T E.  T Q     
-------------------------|------------------------------|
-------------------------|-------------------1---L-1----|
-------------------2-----|----1------L------------------|
--4--------L----4-----4--|-------------2-2--------------|
-------------------------|------------------------------|
-------------------------|------------------------------|


  Q.     E  S S T T E  S S S    S T T S T T S T T S S T T E.  T E.  T  
---------5--5-----3-0--------|--0-----------0-------------3-----3---L-|
--------------5--------1-----|--1-----1-----1-----1-3-----5-----5---L-|
--2----------------------2-0-|----2-2-2-2-2---2-2-2-4-2-2-------------|
-----------------------------|------------------------2-2-------------|
-----------------------------|----------------------------------------|
-----------------------------|----------------------------------------|


  T  Q     S  S. S. S  S. S. E.  T    E  T  T  S  S  S  S  Q.      E   T  T  
--L------------------------------L-|--L--L----------------------------------|
--L-------------------------15-----|----------------------17------17--15-13-|
----14----12-14-14-12-14-14--------|-------12-14-14-------------------------|
-----------------------------------|----------------17-17-------------------|
-----------------------------------|----------------------------------------|
-----------------------------------|----------------------------------------|


   S. S. S  S. S. S  S. Q     S. S  
-----------------------------------|
--15-15-17-15-15-15-17-15----15-15-|
-----------------------------------|
-----------------------------------|
-----------------------------------|
-----------------------------------|


   S  S  T T  T  T  T T  Q    T  S T  S. S. E   
-----------------------------------------------|
--17-------------------------------------------|
-----19-17---16-14-16---17---------------------|
--------------------------------17---14-14-----|
-------------------------------------------15--|
-----------------------------------------------|


  T T T T T T T T T T T T T T T T T T T T T T T T  T T  T  T  T T  T  T  
--------------------------------------------3-5-5----8--9-11-12-9-10-12-|
------------------------------------------4---7----8---10---------11----|
----------------------------0-2-2-0-0-0-6-5-------11---------12---------|
--------------------------1---4-------7---------------------------------|
--------2-3-3-2-------0-4-3-------3---9---------------------------------|
----0-0---5---0-3-0-3-5-------------------------------------------------|


   T  T  T  T  T  T  T  T  T  T  T  T  T  T  T  T  T  Q    T  S.T  S  
--13-10-11-13-14-11-12-14-15-12-13-15-16-13-15-19-20-20----L-20---19-|
--------12----------13----------14----------17-----------------------|
--13----------14----------15----------16-----------------------------|
---------------------------------------------------------------------|
---------------------------------------------------------------------|
---------------------------------------------------------------------|


  T  E  T  T  T  E   S  T  T  T  T  T  T  T  T  T  T  T  T  T  T  T  T  S  
--L-20--L-19-17-17--17-17-17-17-17-17-17-17-17-17-17-17-17-17-17-17-17-17-|
--------------------------------------------------------------------------|
--------------------------------------------------------------------------|
--------------------------------------------------------------------------|
--------------------------------------------------------------------------|
--------------------------------------------------------------------------|


   T T  T  T  T  T  T  T  T  T  T  T  T  T  T  T  T  T  T  T  T  T  T  T  T  T  
--17---17-17-17-15-17-17-17-17-20----17-17-17-17-20----17-17-15-15-17-17-15-20-1
-------20----17----15----15-------20-20-------------20-20----17----20----17----2
-------------------------------21----------19----21-----------------------------
--------------------------------------------------------------------------------
--------------------------------------------------------------------------------
--------------------------------------------------------------------------------


   T  T  T  T  T  T  T  T  T  T  T  T  T  T  T  T  T  T  T  T  T  T  T  T  T  T 
--15-22-------17-20-17-17-17-20----17-17-20----17-20-20----------22-20-------22-
-----20-22-22-22----------22----20----22----20----22----22-20-22-------22-20----
--------------------------------------------------------------24----------21----
--------------------------------------------------------------------------------
--------------------------------------------------------------------------------
--------------------------------------------------------------------------------


   T  T  T  T  T  T  T  T  T  T  T  T  T  T  T  T  T  T  T  T  T  T  Q    S  
-----22-20-------22-20-------22-20----------------------------------12------|
--20-------22-20-------22-20-------22-20-20----------------------15---------|
--21----------21----------21----------------21-21-19-19-17----14----14----L-|
--------------------------------------21----19----17-------17-17------------|
--------------------------------------------------------19------------------|
----------------------------------------------------------------------------|


  T T T T T T T T T T T T T T T T T T T T T T  T T  Q     
--------------------------------------------3--0-8-10----|
------------------------------------------4---10---------|
----------------------------0-2-2-0-0-0-6-5---12---------|
--------------------------1---4-------7------------------|
--------2-3-3-2-------0-4-3-------3---9------------------|
--0-1-----5---0-3-0-3-5----------------------------------|


  T E.  T S. S. T T E.  T T Q       Q    E  S. T  E  T  T T  T  E.   S  
----8---L-7-----------------5----|--5----3--5--3-12--L-10-8------------|
-------------8-------------------|--------------------------10-10---10-|
------------------9-9------------|-----------------------------12------|
---------------------------------|-------------------------------------|
------------------------7-7------|-------------------------------------|
---------------------------------|-------------------------------------|


   E.  S S. S. S S. S. S S. T E     Q    T S S. S S. E  T T E.  T  
---------------------------------|--------------------------------|
--10---8----8--------------------|--------------------------------|
---------9-----9-7--5--4-4----5--|--4-----------------------------|
---------------------------------|---------2-0--------------------|
---------------------------------|--------------3-3--2--L---3---L-|
---------------------------------|--------------------------------|


  T H.           E.  T    W                   W                 
-----------------------|-------------------|-------------------|
-----------------------|-------------------|-------------------|
-----------------------|-------------------|-------------------|
-----------------------|-------------------|-------------------|
--L--------------------|-------------------|-------------------|
-----------------------|-------------------|-------------------|


  W                 
-------------------|
-------------------|
-------------------|
-------------------|
-------------------|
-------------------|


  T T T T T T T T T T T T T T T T T T T T T T T  T  T  T  T  T  T  T  T  T  
--5-5-5-5-5-5-5-5-5-5-5-5-5-7-7-7-7-8-8-8-8-8-8-10-10-10-10-10-10-12-12-12-|
------5---5---5---5---5---7---7-----------8--------------10----------------|
---------------------------------------------------------------------------|
---------------------------------------------------------------------------|
---------------------------------------------------------------------------|
---------------------------------------------------------------------------|


   T  T  T  T  T  T  T  T  T  T  T  T  T  T  T  T  T  T  T  T  T  T  T  T  T  T 
--12-12-12-12-12-12-12-12-12-12-12-12-12-12-12-12-12-12-12-12-12-12-12-12-12-12-
--12----12----12----12----12----12----12----12----12----12----12----12----12----
--------------------------------------------------------------------------------
--------------------------------------------------------------------------------
--------------------------------------------------------------------------------
--------------------------------------------------------------------------------


  H        S Q    E  S   
--L--------L-----------||
-----------------------||
-----------------------||
-----------------------||
-----------------------||
-----------------------||




Duration Legend
---------------
W - whole
H - half
Q - quarter
E - 8th
S - 16th
T - 32nd
X - 64th
. - note dotted
|-n-|  - n-tuplets


Tablature Legend
----------------
L - tied note
x - dead note
g - grace note
(n) - ghost note
> - accentuded note
NH - natural harmonic
AH - artificial harmonic
TH - tapped harmonic
SH - semi harmonic
PH - pitch harmonic
h - hammer on
p - pull off
b - bend
br - bendRelease
pb - preBend
pbr - preBendRelease
brb - bendReleaseBend
\n/ - tremolo bar dip
\n - tremolo bar dive
-/n - tremolo bar Release up
/n\ - tremolo bar inverted dip
/n - tremolo bar return
-\n - tremolo bar Release down
S - shift slide
s - legato slide
/ -  slide into from below or out of upwards
\ -  slide into from above or out of downwards
~ - vibrato
W - wide vibrato
tr - trill
TP - tremolo picking
T - tapping
S - slap
P - pop
< - fade in
^ - brush up
v - brush down
comments
We did not receive enough feedback on this tab! Please rate:
print report bad tab
1 2 3 4 5
I want to post or [tab]
guest
You may want to rate the tab now too:
select rating
Please do not post tabs as comments. Select "correction" instead!