Oops, an error
Loading. Please wait.

Nhia - We Can Make It Through Tab

76 views 1 this week
no commentswrite comment
1 2 3 4 5
please rate
Autoscroll
+/-
esc
set tempo
stop
Contributor
Difficulty
novice
WARNING: You are trying to view
                                    content from Ultimate-Guitar.com
                                    in an unauthorized application,
                                    which is prohibited.

                                    Please use an official Ultimate
                                    Guitar Tabs application for iPhone,
                                    iPad or Android to access legitimate
                                    chords, guitar, bass, and drum tabs
                                    from Ultimate-Guitar.com database.

                                    Type "ultimate guitar tabs" in Apple
                                    App Store's or Android Market's
                                    search to find the application.
Hey guys, here's my tab for my song called "We Can Make It Through." Its my first tab
and song after playing guitar for 4 months. Well, when I get the lyrics done for my
song, ill update it again, but for now heres the tabs. Enjoy :D
-NnTforever-

Send me some feedback: hottguy559@Hotmail.com

Nhia
"We Can Make It Through"

Tuning: E A D G B e

Intro
e|----------3-----2-----0-------------0-----2-----3----|
B|------0-----0-----0-----3-------3-----3-----3-----3--|
G|--------0-----0-----0-----0-------0-----0-----0-----0|
D|----2------------------------------------------------|
A|------------------------------3----------------------|
E|-----------------------------------------------------|

Verse 1
e|----------3-----2-----0-------------0-----2-----3-----|
B|------0-----0-----0-----3-------3-----3-----3-----3---|
G|--------0-----0-----0-----0-------0-----0-----0-----0-|
D|----2-------------------------------------------------|
A|------------------------------3-----------------------|
E|------------------------------------------------------|

e|---------2-----0-----3-----|
B|-----3-----3-----3-----3---|
G|-------2-----2-----2-----0-|
D|---0-----------------------|
A|---------------------------|
E|---------------------------|

e|---------3-----2-----0-------------0-----5-----5-----|
B|-----0-----0-----0-----3-------5-----5-----5-----5---|
G|-------0-----0-----0-----0-------0-----0-----0-----0-|
D|---2-------------------------------------------------|
A|-----------------------------3-----------------------|
E|-----------------------------------------------------|

e|------0------7--|
B|--7-----7-------|
G|----0-----0-----|
D|----------------|
A|5---------------|
E|----------------|

Bridge 1
e|---------2-----3-------------3-------------------3-----2-----3---------|
B|-----3-----3-----3-------3-----3-------------3-----3-----3-----3-------|
G|-------0-----0-----0-------0-----0---0h2-------2-----2-----2-----0-----|
D|-----------------------2-------------------0---------------------------|
A|---2-------------------------------------------------------------------|
E|-----------------------------------------------------------------------|

e|3-3-3-3---3-3-2-2---2-2-3-3-3-3---3-3-2-2-2-2-2-2h3-3-3-3-3-3-|
B|3-----3---3-----3-------3-----3---3---3---3-----3-----3-3-3---|
G|0-----0---------0-------2-----2---2-------2-----0-------0-----|
D|0-----0---------0h2-----0-----0---0-------0-----2-------------|
A|2-------------------------------------------------------------|
E|--------------------------------------------------------------|

e|3-3-3-3---3-3-2-2---2-2-3-3-3-3---3-3-2-2-2-2-2-2h3-3-3-3-3-3-|
B|3-----3---3-----3-------3-----3---3---3---3-----3-----3-3-3---|
G|0-----0---------0-------2-----2---2-------2-----0-------0-----|
D|0-----0---------0h2-----0-----0---0-------0-----2-------------|
A|2-------------------------------------------------------------|
E|--------------------------------------------------------------|

Chorus 1
e|3-3-3-3-3-3-3-3-3-3-3-3-3-3-3-3-3-3-3-3-3-3-3-3-3-3-3-3-3-3-3-3-3-3-3-3--|
B|3-3-3-3-3---3---3---3-3-3-----3-----3-----3-3-3-3-3-3---3-3-3-3-3---3----|
G|0-----0-0-------0-----0-------0-----0-----2---2---2-2---0-----0-0--------|
D|2-----2---------2-----2-------2-----2-----0---0---0-----2-----2----------|
A|3---------------2-------------2-----2-----0-------------3----------------|
E|------------------------------------------2------------------------------|

e|0-0-0-0-0h3-3-3-3-3-2-2-2-2-2-2-3-3-3-3-3-3-|
B|3-3---3-3---3-3-3---3-3---3---3---3---3-----|
G|0-----0-0-----0-----2-----2---2-------2-----|
D|2-----2-2-----0-----0-----------------0-----|
A|3-----3-3-----2-----------------------0-----|
E|--------------3-----------------------0-----|


e|0-0-0-0-0h3-3-3-3-3-2-2-2-2-2-2h3--3-3-3-3-3-|
B|3-3---3-3---3-3-3---3-3---3---3----3---3-----|
G|0-----0-0-----0-----2-----2---2--------2-----|
D|2-----2-2-----0-----0------------------0-----|
A|3-----3-3-----2------------------------0-----|
E|--------------3------------------------0-----|


Verse 2
e|----------3-----2-----0-------------0-----2-----3-----|
B|------0-----0-----0-----3-------3-----3-----3-----3---|
G|--------0-----0-----0-----0-------0-----0-----0-----0-|
D|----2-------------------------------------------------|
A|------------------------------3-----------------------|
E|------------------------------------------------------|

e|---------2-----0-----3-----|
B|-----3-----3-----3-----3---|
G|-------2-----2-----2-----0-|
D|---0-----------------------|
A|---------------------------|
E|---------------------------|

e|---------3-----2-----0-------------0-----5-----5-----|
B|-----0-----0-----0-----3-------5-----5-----5-----5---|
G|-------0-----0-----0-----0-------0-----0-----0-----0-|
D|---2-------------------------------------------------|
A|-----------------------------3-----------------------|
E|-----------------------------------------------------|

e|------0------7--|
B|--7-----7-------|
G|----0-----0-----|
D|----------------|
A|5---------------|
E|----------------|


Bridge 2
e|---------2-----3-------------3-------------------3-----2-----3--------|
B|-----3-----3-----3-------3-----3-------------3-----3-----3-----3------|
G|-------0-----0-----0-------0-----0---0h2-------2-----2-----2-----0----|
D|-----------------------2-------------------0--------------------------|
A|---2------------------------------------------------------------------|
E|----------------------------------------------------------------------|

e|3-3-3-3---3-3-2-2---2-2-3-3-3-3---3-3-2-2-2-2-2-2h3-3-3-3-3-3-|
B|3-----3---3-----3-------3-----3---3---3---3-----3-----3-3-3---|
G|0-----0---------0-------2-----2---2-------2-----0-------0-----|
D|0-----0---------0h2-----0-----0---0-------0-----2-------------|
A|2-------------------------------------------------------------|
E|--------------------------------------------------------------|

e|3-3-3-3---3-3-2-2---2-2-3-3-3-3---3-3-2-2-2-2-2-2h3-3-3-3-3-3-|
B|3-----3---3-----3-------3-----3---3---3---3-----3-----3-3-3---|
G|0-----0---------0-------2-----2---2-------2-----0-------0-----|
D|0-----0---------0h2-----0-----0---0-------0-----2-------------|
A|2-------------------------------------------------------------|
E|--------------------------------------------------------------|

Chorus 2
e|3-3-3-3-3-3-3-3-3-3-3-3-3-3-3-3-3-3-3-3-3-3-3-3-3-3-3-3-3-3-3-3-3-3-3-3--|
B|3-3-3-3-3---3---3---3-3-3-----3-----3-----3-3-3-3-3-3---3-3-3-3-3---3----|
G|0-----0-0-------0-----0-------0-----0-----2---2---2-2---0-----0-0--------|
D|2-----2---------2-----2-------2-----2-----0---0---0-----2-----2----------|
A|3---------------2-------------2-----2-----0-------------3----------------|
E|------------------------------------------2------------------------------|

e|0-0-0-0-0h3-3-3-3-3-2-2-2-2-2-2-3-3-3-3-3-3-|
B|3-3---3-3---3-3-3---3-3---3---3---3---3-----|
G|0-----0-0-----0-----2-----2---2-------2-----|
D|2-----2-2-----0-----0-----------------0-----|
A|3-----3-3-----2-----------------------0-----|
E|--------------3-----------------------0-----|


e|0-0-0-0-0h3-3-3-3-3-2-2-2-2-2-2h3--3-3-3-3-3-|
B|3-3---3-3---3-3-3---3-3---3---3----3---3-----|
G|0-----0-0-----0-----2-----2---2--------2-----|
D|2-----2-2-----0-----0------------------0-----|
A|3-----3-3-----2------------------------0-----|
E|--------------3------------------------0-----|

Verse 3
e|----------3-----2-----0-------------0-----2-----3-----|
B|------0-----0-----0-----3-------3-----3-----3-----3---|
G|--------0-----0-----0-----0-------0-----0-----0-----0-|
D|----2-------------------------------------------------|
A|------------------------------3-----------------------|
E|------------------------------------------------------|

e|---------2-----0-----3-----|
B|-----3-----3-----3-----3---|
G|-------2-----2-----2-----0-|
D|---0-----------------------|
A|---------------------------|
E|---------------------------|

e|---------3-----2-----0-------------0-----5-----5-----|
B|-----0-----0-----0-----3-------5-----5-----5-----5---|
G|-------0-----0-----0-----0-------0-----0-----0-----0-|
D|---2-------------------------------------------------|
A|-----------------------------3-----------------------|
E|-----------------------------------------------------|

e|------0------7--|
B|--7-----7-------|
G|----0-----0-----|
D|----------------|
A|5---------------|
E|----------------|

Bridge 3
e|---------2-----3-------------3-------------------3-----2-----3--------|
B|-----3-----3-----3-------3-----3-------------3-----3-----3-----3------|
G|-------0-----0-----0-------0-----0---0h2-------2-----2-----2-----0----|
D|-----------------------2-------------------0--------------------------|
A|---2------------------------------------------------------------------|
E|----------------------------------------------------------------------|

e|3-3-3-3---3-3-2-2---2-2-3-3-3-3---3-3-2-2-2-2-2-2h3-3-3-3-3-3-|
B|3-----3---3-----3-------3-----3---3---3---3-----3-----3-3-3---|
G|0-----0---------0-------2-----2---2-------2-----0-------0-----|
D|0-----0---------0h2-----0-----0---0-------0-----2-------------|
A|2-------------------------------------------------------------|
E|--------------------------------------------------------------|


Chorus 3
e|3-3-3-3-3-3-3-3-3-3-3-3-3-3-3-3-3-3-3-3-3-3-3-3-3-3-3-3-3-3-3-3-3-3-3-3--|
B|3-3-3-3-3---3---3---3-3-3-----3-----3-----3-3-3-3-3-3---3-3-3-3-3---3----|
G|0-----0-0-------0-----0-------0-----0-----2---2---2-2---0-----0-0--------|
D|2-----2---------2-----2-------2-----2-----0---0---0-----2-----2----------|
A|3---------------2-------------2-----2-----0-------------3----------------|
E|------------------------------------------2------------------------------|

e|0-0-0-0-0h3-3-3-3-3-2-2-2-2-2-2-3-3-3-3-3-3-|
B|3-3---3-3---3-3-3---3-3---3---3---3---3-----|
G|0-----0-0-----0-----2-----2---2-------2-----|
D|2-----2-2-----0-----0-----------------0-----|
A|3-----3-3-----2-----------------------0-----|
E|--------------3-----------------------0-----|

e|3-3-3-3---3-3-2-2---2-2-3-3-3-3---3-3-2-2-2-2-2-2h3-3-3-3-3-3-|
B|3-----3---3-----3-------3-----3---3---3---3-----3-----3-3-3---|
G|0-----0---------0-------2-----2---2-------2-----0-------0-----|
D|0-----0---------0h2-----0-----0---0-------0-----2-------------|
A|2-------------------------------------------------------------|
E|--------------------------------------------------------------|

Chorus 4
e|3-3-3-3-3-3-3-3-3-3-3-3-3-3-3-3-3-3-3-3-3-3-3-3-3-3-3-3-3-3-3-3-3-3-3-3--|
B|3-3-3-3-3---3---3---3-3-3-----3-----3-----3-3-3-3-3-3---3-3-3-3-3---3----|
G|0-----0-0-------0-----0-------0-----0-----2---2---2-2---0-----0-0--------|
D|2-----2---------2-----2-------2-----2-----0---0---0-----2-----2----------|
A|3---------------2-------------2-----2-----0-------------3----------------|
E|------------------------------------------2------------------------------|

e|0-0-0-0-0h3-3-3-3-3-2-2-2-2-2-2-3-3-3-3-3-3-|
B|3-3---3-3---3-3-3---3-3---3---3---3---3-----|
G|0-----0-0-----0-----2-----2---2-------2-----|
D|2-----2-2-----0-----0-----------------0-----|
A|3-----3-3-----2-----------------------0-----|
E|--------------3-----------------------0-----|

e|0-0-0-0-0h3-3-3-3-3-2-2-2-2-2-2h3--3-3-3-3-3-|
B|3-3---3-3---3-3-3---3-3---3---3----3---3-----|
G|0-----0-0-----0-----2-----2---2--------2-----|
D|2-----2-2-----0-----0------------------0-----|
A|3-----3-3-----2------------------------0-----|
E|--------------3------------------------0-----|

Ending
e|---------2-----3-------------3-------------------3-----2-----3-----|
B|-----3-----3-----3-------3-----3-------------3-----3-----3-----3---|
G|-------0-----0-----0-------0-----0---0h2-------2-----2-----2-----0-|
D|-----------------------2-------------------0-----------------------|
A|---2---------------------------------------------------------------|
E|-------------------------------------------------------------------|

e|----------3-----2-----0------|
B|------0-----0-----0-----3----|
G|--------0-----0-----0-----0--|
D|----2------------------------|
A|-----------------------------|
E|-----------------------------|

e|--------0-----3-----0--------------0-----0-----0------|
B|----3-----3-----3-----1--------1-----1-----0-----0----|
G|------0-----0-----0-----2--------2-----2-----2-----0--|
D|------------------------------------------------------|
A|--3--------------------------0------------------------|
E|------------------------------------------------------|

e|--------0-----5-----5---------------0---------7--|
B|----5-----5-----5-----5--------7-------7---------|
G|------0-----0-----0-----0---------0-------0------|
D|-------------------------------------------------|
A|--3-------------------------5--------------------|
comments
We did not receive enough feedback on this tab! Please rate:
print report bad tab
1 2 3 4 5
I want to post or [tab]
guest
You may want to rate the tab now too:
select rating
Please do not post tabs as comments. Select "correction" instead!