Oops, an error
Loading. Please wait.

Nick Murphy - Seranation Of A Fallen Comrade Tab

94 views 1 this week
no commentswrite comment
1 2 3 4 5
excellent!
x 1
Autoscroll
+/-
esc
set tempo
stop
Contributor
Tabbers playing skills
intermediate ++
Hey! There's an official Ultimate Guitar app which is ideal
for learning songs when you're away from computer. Get the app
WARNING: You are trying to view
                                    content from Ultimate-Guitar.com
                                    in an unauthorized application,
                                    which is prohibited.

                                    Please use an official Ultimate
                                    Guitar Tabs application for iPhone,
                                    iPad or Android to access legitimate
                                    chords, guitar, bass, and drum tabs
                                    from Ultimate-Guitar.com database.

                                    Type "ultimate guitar tabs" in Apple
                                    App Store's or Android Market's
                                    search to find the application.
ong Name: Seranation of a Fallen Comrade
Band Name: Ravens of the Clouds
Tabbed by: Nick Murphy

This is a song that I wrote that is based off
a chord progression that is also a lead line
for a classic song (which I cannot remember the name).
This song sounds pretty cool if you have two guitars.
One of them playing the lead line and the other
is playing the actuall chords which are also posted below.
A bass can also be used with the lead guitar when you
change bass lines on the lead. If you are using drums
then it should be kept at a mellow tone,
like you would hear at a funeral. Normally this
would be to soft for what Metal Interface plays,
therefore all of our string instruments are tuned
down to give it a more dark sad tone. The lead guitar
is most commonly played on a 6 steel string acoustic
and the rythim is played on an electric with a clean tone.

Tuning: D Tuning (DGCFAd)


Here are the chords you play with the song, 
play each chord when the lead guitarist
switches the bass note. Let them ring after
you play them until the next bass switch. 
The Rythim buitar can be in standard tuning 
or d tuning. There is no rythim in the solo. 
Finish with an F chord and match it up with
the C chord from the lead guitar at the end.

Chords:
F C Am Em G7 Dm G7

Bass:
F|----------------------------------------------------------------------------------------------|
C|----------------------------------------------------------------------------------------------|
G|--3-----------2-----------0---------------------------------------------------------------0-2-|
D|--------------------------------------3-----------1-----------0-----------1-----------3-3-----|
You'll need to sync the bass
and the bass notes from the guitar
up to get the right sound. This riff 
continues throughout the song with the 
same beat, even during the solo.

Lead Guitar:

Intro:
Riff 1
d|----------------------------------------------------------------------------------------------|
A|--------1-----------1-----------1-----------1-----------1-----------1-----------1-------------|
F|-----0-----0-----0-----0-----0-----0-----0-----0-----0-----0-----0-----0-----0-----0----------|
C|----------------------------------------------------------------------------------------------|
G|--3-----------2-----------0---------------------------------------------------------------0-2-|
D|--------------------------------------3-----------1-----------0-----------1-----------3-3-----|X2


Bridge 1:
Riff 2
d|----------------------------------------------------------------------------------------------|
A|-----1-----1-----1-----1-----1-----1-----1-----1-----1-----1-----1-----1-----1-----1----------|
F|--------0-----------0-----------0-----------0-----------0-----------0-----------0-------------|
C|----------------------------------------------------------------------------------------------|
G|--3-----------2-----------0---------------------------------------------------------------0-2-|
D|--------------------------------------3-----------1-----------0-----------1-----------3-3-----|X2


Chorus 1:
Riff 3
d|----------------------------------------------------------------------------------------------|
A|-----1--1---------1--1--------1--1--------1--1--------1--1--------1--1--------1--1------------|
F|-----0--0---------0--0--------0--0--------0--0--------0--0--------0--0--------0--0------------|
C|----------------------------------------------------------------------------------------------|
G|--3------------2-----------0--------------------------------------------------------------0-2-|
D|---------------------------------------3-----------1-----------0-----------1----------3-3-----|X2


Bridge 2:
Riff 4
d|----------------------------------------------------------------------------------------------|
A|-------1-----------1-----------1-----------1-----------1-----------1-----------1--------------|
F|-----0---0-------0---0-------0---0-------0---0-------0---0-------0---0-------0---0------------|
C|----------------------------------------------------------------------------------------------|
G|--3-----------2-----------0---------------------------------------------------------------0-2-|
D|--------------------------------------3-----------1-----------0-----------1-----------3-3-----|X2

Riff 5
d|----------------------------------------------------------------------------------------------|
A|-----1---1-------1---1-------1---1-------1---1-------1---1-------1---1-------1---1------------|
F|-------0-----------0-----------0-----------0-----------0-----------0-----------0--------------|
C|----------------------------------------------------------------------------------------------|
G|--3-----------2-----------0---------------------------------------------------------------0-2-|
D|--------------------------------------3-----------1-----------0-----------1-----------3-3-----|X2


Chorus 2:
Riff 3
d|----------------------------------------------------------------------------------------------|
A|-----1--1---------1--1--------1--1--------1--1--------1--1--------1--1--------1--1------------|
F|-----0--0---------0--0--------0--0--------0--0--------0--0--------0--0--------0--0------------|
C|----------------------------------------------------------------------------------------------|
G|--3------------2-----------0--------------------------------------------------------------0-2-|
D|---------------------------------------3-----------1-----------0-----------1----------3-3-----|X2


Bridge 2:
Riff 6
d|----------------------------------------------------------------------------------------------|
A|--------1--1--------1--1--------1--1--------1--1--------1--1--------1--1--------1--1----------|
F|-----0-----------0-----------0-----------0-----------0-----------0-----------0----------------|
C|----------------------------------------------------------------------------------------------|
G|--3-----------2-----------0---------------------------------------------------------------0-2-|
D|--------------------------------------3-----------1-----------0-----------1-----------3-3-----|X2

Riff 7
d|----------------------------------------------------------------------------------------------|
A|-----1-----------1-----------1-----------1-----------1-----------1-----------1----------------|
F|--------0--0--------0--0--------0--0--------0--0--------0--0--------0--0--------0--0----------|
C|----------------------------------------------------------------------------------------------|
G|--3-----------2-----------0---------------------------------------------------------------0-2-|
D|--------------------------------------3-----------1-----------0-----------1-----------3-3-----|X2


Chorus 3:
Riff 3
d|----------------------------------------------------------------------------------------------|
A|-----1--1---------1--1--------1--1--------1--1--------1--1--------1--1--------1--1------------|
F|-----0--0---------0--0--------0--0--------0--0--------0--0--------0--0--------0--0------------|
C|----------------------------------------------------------------------------------------------|
G|--3------------2-----------0--------------------------------------------------------------0-2-|
D|---------------------------------------3-----------1-----------0-----------1----------3-3-----|X2


Bridge 3:
Riff 8
d|----------------------------------------------------------------------------------------------|
A|-------1-1---------1-1---------1-1---------1-1---------1-1---------1-1---------1-1------------|
F|-----0-----------0-----------0-----------0-----------0-----------0-----------0----------------|
C|----------------------------------------------------------------------------------------------|
G|--3-----------2-----------0---------------------------------------------------------------0-2-|
D|--------------------------------------3-----------1-----------0-----------1-----------3-3-----|X2

Riff 9
d|----------------------------------------------------------------------------------------------|
A|-----1-----------1-----------1-----------1-----------1-----------1-----------1----------------|
F|-------0-0---------0-0---------0-0---------0-0---------0-0---------0-0---------0-0------------|
C|----------------------------------------------------------------------------------------------|
G|--3-----------2-----------0---------------------------------------------------------------0-2-|
D|--------------------------------------3-----------1-----------0-----------1-----------3-3-----|X2


Chorus 4:
Riff 3
d|----------------------------------------------------------------------------------------------|
A|-----1--1---------1--1--------1--1--------1--1--------1--1--------1--1--------1--1------------|
F|-----0--0---------0--0--------0--0--------0--0--------0--0--------0--0--------0--0------------|
C|----------------------------------------------------------------------------------------------|
G|--3------------2-----------0--------------------------------------------------------------0-2-|
D|---------------------------------------3-----------1-----------0-----------1----------3-3-----|X2


Bridge 4:
Riff 10
d|----------------------------------------------------------------------------------------------|
A|-----------1-----------1-----------1-----------1-----------1-----------1-----------1----------|
F|-----0--0--------0--0--------0--0--------0--0--------0--0--------0--0--------0--0-------------|
C|----------------------------------------------------------------------------------------------|
G|--3-----------2-----------0---------------------------------------------------------------0-2-|
D|--------------------------------------3-----------1-----------0-----------1-----------3-3-----|X2

Riff 11
d|----------------------------------------------------------------------------------------------|
A|-----1--1--------1--1--------1--1--------1--1--------1--1--------1--1--------1--1-------------|
F|-----------0-----------0-----------0-----------0-----------0-----------0-----------0----------|
C|----------------------------------------------------------------------------------------------|
G|--3-----------2-----------0---------------------------------------------------------------0-2-|
D|--------------------------------------3-----------1-----------0-----------1-----------3-3-----|X2


Chorus 5:
Riff 3
d|----------------------------------------------------------------------------------------------|
A|-----1--1---------1--1--------1--1--------1--1--------1--1--------1--1--------1--1------------|
F|-----0--0---------0--0--------0--0--------0--0--------0--0--------0--0--------0--0------------|
C|----------------------------------------------------------------------------------------------|
G|--3------------2-----------0--------------------------------------------------------------0-2-|
D|---------------------------------------3-----------1-----------0-----------1----------3-3-----|X2


Bridge 5:
Riff 12
d|----------------------------------------------------------------------------------------------|
A|---------1-----------1-----------1-----------1-----------1-----------1-----------1------------|
F|-----0-0---------0-0---------0-0---------0-0---------0-0---------0-0---------0-0--------------|
C|----------------------------------------------------------------------------------------------|
G|--3-----------2-----------0---------------------------------------------------------------0-2-|
D|--------------------------------------3-----------1-----------0-----------1-----------3-3-----|X2

Riff 13
d|----------------------------------------------------------------------------------------------|
A|-----1-1---------1-1---------1-1---------1-1---------1-1---------1-1---------1-1--------------|
F|---------0-----------0-----------0-----------0-----------0-----------0-----------0------------|
C|----------------------------------------------------------------------------------------------|
G|--3-----------2-----------0---------------------------------------------------------------0-2-|
D|--------------------------------------3-----------1-----------0-----------1-----------3-3-----|X2


Chorus 6:
Riff 3
d|----------------------------------------------------------------------------------------------|
A|-----1--1---------1--1--------1--1--------1--1--------1--1--------1--1--------1--1------------|
F|-----0--0---------0--0--------0--0--------0--0--------0--0--------0--0--------0--0------------|
C|----------------------------------------------------------------------------------------------|
G|--3------------2-----------0--------------------------------------------------------------0-2-|
D|---------------------------------------3-----------1-----------0-----------1----------3-3-----|X2


Solo:
d|--0--0-1-3-----0-1-----------------------------------------3-1--0----------------------|
A|------------3------1--0----------------------------0--1--3---------------3-1-0---------|
F|-------------------------2--0-------------------2------------------0--2---------2------|
C|-------------------------------2--0------0--2-3----------------------------------------|
G|---------------------------------------------------------------------------------------|
D|---------------------------------------------------------------------------------------|

d|----------------------------------------0-0-0-----------------------3-1--0-------------|
A|---------------------0-----3-1-----------------3--1-1-0--------1--3---------1--0-------|
F|--0---------------------2------0-------------------------2--0---------------------2----|
C|--------3-2-0--2--3---------------2--------------------------------------------------3-|
G|---------------------------------------------------------------------------------------|
D|---------------------------------------------------------------------------------------|

d|----------------------------0------------1--3-3-3--0-----------------------------------|
A|----------1--3-1-0-------------3-1--------------------0-------------------0--1--3------|
F|-------0------------0--------------2--0------------------0-----------0--2----------2-0-|
C|--2-0-------------------3-----------------------------------2--0--3--------------------|
G|---------------------------------------------------------------------------------------|
D|---------------------------------------------------------------------------------------|

d|---------------------1--3-----------3-1-0-----------------------0--1--0-----------3-1--|
A|---------------------------3--1------------1--0--------------3-----------1--0----------|
F|-----0---------------------------2------------------------0--------------------2-------|
C|--2-----3--2---0---------------------------------2--3--0-------------------------------|
G|---------------------------------------------------------------------------------------|
D|---------------------------------------------------------------------------------------|

d|--3-1---------------------------------0--1--3---------------------3--------0-----0-1-0-|
A|------3-1-3-1-----------0---------1-3----------1--0------------------1--3-----3--------|
F|--------------------0-------2--0----------------------------2--0-----------------------|
C|--------------0--------------------------------------2-3-0-----------------------------|
G|---------------------------------------------------------------------------------------|
D|---------------------------------------------------------------------------------------|

d|---------------------3--0-----------------------------1--0--------------0--3-----------|
A|--1--0------------0--------3--0--1-----------0--------------1--3--0--1-----------------|
F|--------2--0------------------------------------2--0--------------------------2--------|
C|---------------2--------------------3--2--0--------------------------------------3--0--|
G|---------------------------------------------------------------------------------------|
D|---------------------------------------------------------------------------------------|

d|--------------3--1---------------------3--3--3--1--0-----------------------------------|
A|-----3-----1----------------0-3-1--------------------1-0--3--1-------------------3--1--|
F|--------0-------------2-------------2---------------------------2-------------0--------|
C|--2-----------------------------------------------------------------0---3--0-----------|
G|---------------------------------------------------------------------------------------|
D|---------------------------------------------------------------------------------------|

d|--3---1-0----------------------1--1--3--1--0-----------------------------------------3-|
A|----------1--3-----1--1--3--1-----------------3------------0-1-3--1--0-----------------|
F|----------------2-------------------------------2-0---------------------0--------------|
C|-----------------------------------------------------2--3------------------2-3-2--0----|
G|---------------------------------------------------------------------------------------|
D|---------------------------------------------------------------------------------------|

d|-1--0-----------------------3--1--0-----------------------------1---------3-0----------|
A|-------1--3--0--0--------1-----------0-----------------------------3--1-0--------------|
F|-------------------2--------------------2--------0--------0--2----------------2-0------|
C|----------------------3--------------------0--3-----2--0--------------------------3-2-0|
G|---------------------------------------------------------------------------------------|
D|---------------------------------------------------------------------------------------|


Chorus 7:
Riff 3
d|----------------------------------------------------------------------------------------------|
A|-----1--1---------1--1--------1--1--------1--1--------1--1--------1--1--------1--1------------|
F|-----0--0---------0--0--------0--0--------0--0--------0--0--------0--0--------0--0------------|
C|----------------------------------------------------------------------------------------------|
G|--3------------2-----------0--------------------------------------------------------------0-2-|
D|---------------------------------------3-----------1-----------0-----------1----------3-3-----|X2


Bridge 6:
Riff 1
d|----------------------------------------------------------------------------------------------|
A|--------1-----------1-----------1-----------1-----------1-----------1-----------1-------------|
F|-----0-----0-----0-----0-----0-----0-----0-----0-----0-----0-----0-----0-----0-----0----------|
C|----------------------------------------------------------------------------------------------|
G|--3-----------2-----------0---------------------------------------------------------------0-2-|
D|--------------------------------------3-----------1-----------0-----------1-----------3-3-----|X2

Riff 2
d|----------------------------------------------------------------------------------------------|
A|-----1-----1-----1-----1-----1-----1-----1-----1-----1-----1-----1-----1-----1-----1----------|
F|--------0-----------0-----------0-----------0-----------0-----------0-----------0-------------|
C|----------------------------------------------------------------------------------------------|
G|--3-----------2-----------0---------------------------------------------------------------0-2-|
D|--------------------------------------3-----------1-----------0-----------1-----------3-3-----|X2


Chorus 8:
Riff 3
d|----------------------------------------------------------------------------------------------|
A|-----1--1---------1--1--------1--1--------1--1--------1--1--------1--1--------1--1------------|
F|-----0--0---------0--0--------0--0--------0--0--------0--0--------0--0--------0--0------------|
C|----------------------------------------------------------------------------------------------|
G|--3------------2-----------0--------------------------------------------------------------0-2-|
D|---------------------------------------3-----------1-----------0-----------1----------3-3-----|X2


Bridge 7:
Riff 4
d|----------------------------------------------------------------------------------------------|
A|-------1-----------1-----------1-----------1-----------1-----------1-----------1--------------|
F|-----0---0-------0---0-------0---0-------0---0-------0---0-------0---0-------0---0------------|
C|----------------------------------------------------------------------------------------------|
G|--3-----------2-----------0---------------------------------------------------------------0-2-|
D|--------------------------------------3-----------1-----------0-----------1-----------3-3-----|X2

Riff 5
d|----------------------------------------------------------------------------------------------|
A|-----1---1-------1---1-------1---1-------1---1-------1---1-------1---1-------1---1------------|
F|-------0-----------0-----------0-----------0-----------0-----------0-----------0--------------|
C|----------------------------------------------------------------------------------------------|
G|--3-----------2-----------0---------------------------------------------------------------0-2-|
D|--------------------------------------3-----------1-----------0-----------1-----------3-3-----|X2


Chorus 9:
Riff 3
d|----------------------------------------------------------------------------------------------|
A|-----1--1---------1--1--------1--1--------1--1--------1--1--------1--1--------1--1------------|
F|-----0--0---------0--0--------0--0--------0--0--------0--0--------0--0--------0--0------------|
C|----------------------------------------------------------------------------------------------|
G|--3------------2-----------0--------------------------------------------------------------0-2-|
D|---------------------------------------3-----------1-----------0-----------1----------3-3-----|X2


Bridge 8:
Riff 6
d|----------------------------------------------------------------------------------------------|
A|--------1--1--------1--1--------1--1--------1--1--------1--1--------1--1--------1--1----------|
F|-----0-----------0-----------0-----------0-----------0-----------0-----------0----------------|
C|----------------------------------------------------------------------------------------------|
G|--3-----------2-----------0---------------------------------------------------------------0-2-|
D|--------------------------------------3-----------1-----------0-----------1-----------3-3-----|X2

Riff 7
d|----------------------------------------------------------------------------------------------|
A|-----1-----------1-----------1-----------1-----------1-----------1-----------1----------------|
F|--------0--0--------0--0--------0--0--------0--0--------0--0--------0--0--------0--0----------|
C|----------------------------------------------------------------------------------------------|
G|--3-----------2-----------0---------------------------------------------------------------0-2-|
D|--------------------------------------3-----------1-----------0-----------1-----------3-3-----|X2


Chorus 10:
Riff 3
d|----------------------------------------------------------------------------------------------|
A|-----1--1---------1--1--------1--1--------1--1--------1--1--------1--1--------1--1------------|
F|-----0--0---------0--0--------0--0--------0--0--------0--0--------0--0--------0--0------------|
C|----------------------------------------------------------------------------------------------|
G|--3------------2-----------0--------------------------------------------------------------0-2-|
D|---------------------------------------3-----------1-----------0-----------1----------3-3-----|X2


Bridge 9:
Riff 8
d|----------------------------------------------------------------------------------------------|
A|-------1-1---------1-1---------1-1---------1-1---------1-1---------1-1---------1-1------------|
F|-----0-----------0-----------0-----------0-----------0-----------0-----------0----------------|
C|----------------------------------------------------------------------------------------------|
G|--3-----------2-----------0---------------------------------------------------------------0-2-|
D|--------------------------------------3-----------1-----------0-----------1-----------3-3-----|X2

Riff 9
d|----------------------------------------------------------------------------------------------|
A|-----1-----------1-----------1-----------1-----------1-----------1-----------1----------------|
F|-------0-0---------0-0---------0-0---------0-0---------0-0---------0-0---------0-0------------|
C|----------------------------------------------------------------------------------------------|
G|--3-----------2-----------0---------------------------------------------------------------0-2-|
D|--------------------------------------3-----------1-----------0-----------1-----------3-3-----|X2


Chorus 11:
Riff 3
d|-----------------------------------------------------------------------------------------------|
A|-----1--1---------1--1--------1--1--------1--1--------1--1--------1--1--------1--1-------------|
F|-----0--0---------0--0--------0--0--------0--0--------0--0--------0--0--------0--0-------------|
C|-----------------------------------------------------------------------------------------------|
G|--3------------2-----------0---------------------------------------------------------------0-2-|
D|---------------------------------------3-----------1-----------0-----------1-----------3-3-----|X2


Bridge 10:
Riff 10
d|----------------------------------------------------------------------------------------------|
A|-----------1-----------1-----------1-----------1-----------1-----------1-----------1----------|
F|-----0--0--------0--0--------0--0--------0--0--------0--0--------0--0--------0--0-------------|
C|----------------------------------------------------------------------------------------------|
G|--3-----------2-----------0---------------------------------------------------------------0-2-|
D|--------------------------------------3-----------1-----------0-----------1-----------3-3-----|X2

Riff 11
d|----------------------------------------------------------------------------------------------|
A|-----1--1--------1--1--------1--1--------1--1--------1--1--------1--1--------1--1-------------|
F|-----------0-----------0-----------0-----------0-----------0-----------0-----------0----------|
C|----------------------------------------------------------------------------------------------|
G|--3-----------2-----------0---------------------------------------------------------------0-2-|
D|--------------------------------------3-----------1-----------0-----------1-----------3-3-----|X2


Chorus 12:
Riff 3
d|----------------------------------------------------------------------------------------------|
A|-----1--1---------1--1--------1--1--------1--1--------1--1--------1--1--------1--1------------|
F|-----0--0---------0--0--------0--0--------0--0--------0--0--------0--0--------0--0------------|
C|----------------------------------------------------------------------------------------------|
G|--3------------2-----------0--------------------------------------------------------------0-2-|
D|---------------------------------------3-----------1-----------0-----------1----------3-3-----|X2


Bridge 11:
Riff 12
d|----------------------------------------------------------------------------------------------|
A|---------1-----------1-----------1-----------1-----------1-----------1-----------1------------|
F|-----0-0---------0-0---------0-0---------0-0---------0-0---------0-0---------0-0--------------|
C|----------------------------------------------------------------------------------------------|
G|--3-----------2-----------0---------------------------------------------------------------0-2-|
D|--------------------------------------3-----------1-----------0-----------1-----------3-3-----|X2

Riff 13
d|----------------------------------------------------------------------------------------------|
A|-----1-1---------1-1---------1-1---------1-1---------1-1---------1-1---------1-1--------------|
F|---------0-----------0-----------0-----------0-----------0-----------0-----------0------------|
C|----------------------------------------------------------------------------------------------|
G|--3-----------2-----------0---------------------------------------------------------------0-2-|
D|--------------------------------------3-----------1-----------0-----------1-----------3-3-----|X2


Outro:
Riff 3
d|----------------------------------------------------------------------------------------------|0|
A|-----1--1---------1--1--------1--1--------1--1--------1--1--------1--1--------1--1------------|1|
F|-----0--0---------0--0--------0--0--------0--0--------0--0--------0--0--------0--0------------|0|
C|----------------------------------------------------------------------------------------------|2|
G|--3------------2-----------0--------------------------------------------------------------0-2-|3|
D|---------------------------------------3-----------1-----------0-----------1----------3-3-----|-|
comments
We did not receive enough feedback on this tab! Please rate:
print report bad tab
1 2 3 4 5
I want to post or [tab]
guest
You may want to rate the tab now too:
select rating
Please do not post tabs as comments. Select "correction" instead!