Oops, an error
Loading. Please wait.

Nova Mob - Nova Mob Tab

624 views 1 this week
no commentswrite comment
1 2 3 4 5
please rate
Autoscroll
+/-
esc
set tempo
stop
Contributor
Hey! There's an official Ultimate Guitar app which is ideal
for learning songs when you're away from computer. Get the app
WARNING: You are trying to view
                                    content from Ultimate-Guitar.com
                                    in an unauthorized application,
                                    which is prohibited.

                                    Please use an official Ultimate
                                    Guitar Tabs application for iPhone,
                                    iPad or Android to access legitimate
                                    chords, guitar, bass, and drum tabs
                                    from Ultimate-Guitar.com database.

                                    Type "ultimate guitar tabs" in Apple
                                    App Store's or Android Market's
                                    search to find the application.
THIS BELONGS TO TONY PEART NOT ME

OLD EMPIRE (Grant Hart)

Chords:

CaddG X32013    FaddG 1X3323    Am X02210    Dm XX0231    Dsus4 XX0233

C5    X355XX    B5    X133XX    C  X32010

Intro:

*Starts with a bass harmonic (G string 12th fret)

   CaddG
e:-3-3-3-3---3-3-3-3-|-3-3-3-3---3-3-3-3-|
B:-1p0-1p0---1p0-1p0-|-1p0-1p0---1p0-1p0-|
G:-0-0-0-0---0-0-0-0-|-0-0-0-0---0-0-0-0-| Play
D:-2-2-2-2---2-2-2-2-|-2-2-2-2---2-2-2-2-| twice
A:-3-3-3-3---3-3-3-3-|-3-3-3-3---3-3-3-3-|
E:-------------------|-------------------|

Then:

Guitar 1:
   CaddG               FaddG
e:-3-------3-3---3-3-|-3-------3-3---3-3-|
B:-1-------1-1---1-1-|-1-------1-1---1-1-|
G:-0-------0-0---0-0-|-2-------2-2---2-2-|
D:-2-------2-2---2-2-|-3-------3-3---3-3-|
A:-3-------3-3---3-3-|-------------------|
E:-------------------|-1-------1-1---1-1-|

Guitar 2:
   CaddG               FaddG
e:-------------------|-------------------|
B:-------------------|-------------------|
G:-9-----------------|10-9-----5---------|
D:-------------------|---------------7---|
A:-7-----------------|-8-7-----3---------|
E:-------------------|---------------5---|



Guitar 1:
   CaddG               FaddG
e:-3-------3-3---3-3-|-3-------3-3---3-3-|
B:-1-------1-1---1-1-|-1-------1-1---1-1-|
G:-0-------0-0---0-0-|-2-------2-2---2-2-|
D:-2-------2-2---2-2-|-3-------3-3---3-3-|
A:-3-------3-3---3-3-|-------------------|
E:-------------------|-1-------1-1---1-1-|

Guitar 2:
   CaddG               FaddG
e:-------------------|-1-------1-----0---|
B:-------------------|-1-------1-----0---|
G:-------------------|-2-----------------|
D:-5-----------------|-2-----------------|
A:-------------------|-------------------|
E:-3-----------------|-------------------|
                                      


Verse 1:

   C       CaddG     F       FaddG     C       CaddG     F       FaddG            
e:-0---0---3-0-----|-1---1---3-1-----|-0---0---3-0-----|-1---1---3-1-----|
B:-1---1---1-1-----|-1---1---1-1-----|-1---1---1-1-----|-1---1---1-1-----|
G:-0---0---0-0-----|-2---2---2-2-----|-0---0---0-0-----|-2---2---2-2-----|
D:-2---2---2-2-----|-3---3---3-3-----|-2---2---2-2-----|-3---3---3-3-----|
A:-3---3---3-3-----|-----------------|-3---3---3-3-----|-----------------|
E:-----------------|-----------------|-----------------|-----------------|
   Broken  chains are dangling at her feet

   C       CaddG     F       FaddG     C       CaddG     F       FaddG            
e:-0---0---3-0-----|-1---1---3-1-----|-0---0---3-0-----|-1---1---3-1-----|
B:-1---1---1-1-----|-1---1---1-1-----|-1---1---1-1-----|-1---1---1-1-----|
G:-0---0---0-0-----|-2---2---2-2-----|-0---0---0-0-----|-2---2---2-2-----|
D:-2---2---2-2-----|-3---3---3-3-----|-2---2---2-2-----|-3---3---3-3-----|
A:-3---3---3-3-----|-----------------|-3---3---3-3-----|-----------------|
E:-----------------|-----------------|-----------------|-----------------|
    She's on a     pedestal for all to see

   Am      AmaddG    G                 Dsus4 Dm          Dsus4 Dm
e:---------3-------|---------3-------|-3-1-------------|-3-1-------------|
B:-1---1-----1-----|-----------3-----|-3-3-----------3-|-3-3-----------3-|
G:-2---2-----------|-0---0-----------|-2-2---2-----2---|-2-2---2-----2---|
D:-2---2-----------|-0---0-----------|-0-0------0------|-0-0------0------|
A:-0---0-----------|-2---2-----------|-----------------|-----------------|
E:-----------------|-3---3-----------|-----------------|-----------------|
  She holds the     book and she holds the fire

   Am      AmaddG    G                 Dsus4 Dm          Dsus4 
e:---------3-------|---------3-------|-3-1-------------|-3---3---3-3-3---|
B:-1---1-----1-----|-----------3-----|-3-3-----------3-|-3---3---3-3-3---|
G:-2---2-----------|-0---0-----------|-2-2---2-----2---|-2---2---2-2-2---|
D:-2---2-----------|-0---0-----------|-0-0------0------|-0---0---0-0-0---|
A:-0---0-----------|-2---2-----------|-----------------|-----------------|
E:-----------------|-3---3-----------|-----------------|-----------------|
   And she is still clinging to the old empire


Verse 2 (same chords and pattern as above):

C           F               C     F
Some broken promises in one hand
C           F                    C       F
Proclaiming sovereignty over the land
Am         G                Dm
In certain circles she is a liar
Am              G                     Dm   Dsus4
And she's still clinging to the old empire


BREAK (play the four bar pattern below twice):

Guitar 1:
   CaddG               FaddG
e:-3-------3-3---3-3-|-3-------3-3---3-3-|
B:-1-------1-1---1-1-|-1-------1-1---1-1-|
G:-0-------0-0---0-0-|-2-------2-2---2-2-|
D:-2-------2-2---2-2-|-3-------3-3---3-3-|
A:-3-------3-3---3-3-|-------------------|
E:-------------------|-1-------1-1---1-1-|

Guitar 2:
   CaddG               FaddG
e:-------------------|-------------------|
B:-------------------|-------------------|
G:-9-----------------|10-9-----5---------|
D:-------------------|---------------7---|
A:-7-----------------|-8-7-----3---------|
E:-------------------|---------------5---|



Guitar 1:
   CaddG               FaddG
e:-3-------3-3---3-3-|-3-------3-3---3-3-|
B:-1-------1-1---1-1-|-1-------1-1---1-1-|
G:-0-------0-0---0-0-|-2-------2-2---2-2-|
D:-2-------2-2---2-2-|-3-------3-3---3-3-|
A:-3-------3-3---3-3-|-------------------|
E:-------------------|-1-------1-1---1-1-|

Guitar 2:
   CaddG               FaddG
e:-------------------|-1-------1-----0---|
B:-------------------|-1-------1-----0---|
G:-------------------|-2-----------------|
D:-5-----------------|-2-----------------|
A:-------------------|-------------------|
E:-3-----------------|-------------------|

Then:

Guitar:
   Am      AmaddG    G                 Dsus4 Dm          Dsus4 Dm
e:---------3-------|---------3-------|-3-1-------------|-3-1-------------|
B:-1---1-----1-----|-----------3-----|-3-3-----------3-|-3-3-----------3-|
G:-2---2-----------|-0---0-----------|-2-2---2-----2---|-2-2---2-----2---|
D:-2---2-----------|-0---0-----------|-0-0------0------|-0-0------0------|
A:-0---0-----------|-2---2-----------|-----------------|-----------------|
E:-----------------|-3---3-----------|-----------------|-----------------|

Bass:
G:-----------------|-----------------|-----------------|-----------------------|
D:-----------------|-----------------|-----------------|-----------------------|
A:-----------------|-----------------|-----------------|-----------------------|
E:-12-------13-12--|-10p8\5---10-----|10h12\8\5--8-5-5-|8-10-10-12-15-17-15-12-|


Guitar:
   Am      AmaddG    G                 Dsus4 Dm          Dsus4 
e:---------3-------|---------3-------|-3-1-------------|-3---3---3-3-3---|
B:-1---1-----1-----|-----------3-----|-3-3-----------3-|-3---3---3-3-3---|
G:-2---2-----------|-0---0-----------|-2-2---2-----2---|-2---2---2-2-2---|
D:-2---2-----------|-0---0-----------|-0-0------0------|-0---0---0-0-0---|
A:-0---0-----------|-2---2-----------|-----------------|-----------------|
E:-----------------|-3---3-----------|-----------------|-----------------|

Bass:
G:-----------------|-----------------|------------------|---------------------|
D:-----------------|-----------------|------------------|---------------------|
A:-----------------|-----------------|------------------|---------------------|
E:-12--------13-12-|-10-8---5---5----|10-8-5-5--10-8-5-5|10-8-5-5/12-10-8-5-8-|


Verse 3:

C      F                          C      F
Broken chains are dangling at her feet
C          F                   C      F
She's on a pedestal for all to see
Am            G                      Dm
She holds the book and she holds the fire
Am               G                     Dm    Dsus4
And she is still clinging to the old empire

Verse 4:

C           F               C      F
Some broken promises in one hand
C         F                    C      F
Upholding sovereignty over the land
Am         G                Dm
In certain circles she is a liar
Am              G                    Dm    Dsus4
And she's still clinging to the old empire


OUTRO:

   CaddG(hold)
e:-3-----------------|
B:-1-----------------|
G:-0-----------------|
D:-------------------|
A:-------------------|
E:-------------------|

   C5(palm-mute)       Bb5(palm-mute)
e:-------------------|-------------------|
B:-------------------|-------------------| Play
G:-5-5-5-5---5-5-5-5-|-3-3-3-3---3-3-3-3-| four
D:-5-5-5-5---5-5-5-5-|-3-3-3-3---3-3-3-3-| times
A:-3-3-3-3---3-3-3-3-|-1-1-1-1---1-1-1-1-|
E:-------------------|-------------------|


Guitar 1:
   CaddG               FaddG
e:-3-------3-3---3-3-|-3-------3-3---3-3-|
B:-1-------1-1---1-1-|-1-------1-1---1-1-|
G:-0-------0-0---0-0-|-2-------2-2---2-2-|
D:-2-------2-2---2-2-|-3-------3-3---3-3-|
A:-3-------3-3---3-3-|-------------------|
E:-------------------|-1-------1-1---1-1-|
           She's still clinging to the old em-
Guitar 2:
   CaddG               FaddG
e:-------------------|-------------------|
B:-------------------|-------------------|
G:-9-----------------|10-9-----5---------|
D:-------------------|---------------7---|
A:-7-----------------|-8-7-----3---------|
E:-------------------|---------------5---|



Guitar 1:
   CaddG               FaddG
e:-3-------3-3---3-3-|-3-------3-3---3-3-|
B:-1-------1-1---1-1-|-1-------1-1---1-1-|
G:-0-------0-0---0-0-|-2-------2-2---2-2-|
D:-2-------2-2---2-2-|-3-------3-3---3-3-|
A:-3-------3-3---3-3-|-------------------|
E:-------------------|-1-------1-1---1-1-|
  -pire    She's still clinging to the old em-

Guitar 2:
   CaddG               FaddG
e:-------------------|-------------------|
B:-------------------|-------------------|
G:-------------------|-9-------5---------|
D:-5-----------------|-------------------|
A:-------------------|-7-------3---------|
E:-3-----------------|-------------------|


Guitar 1:
   CaddG               FaddG
e:-3-------3-3---3-3-|-3-------3-3---3-3-|
B:-1-------1-1---1-1-|-1-------1-1---1-1-|
G:-0-------0-0---0-0-|-2-------2-2---2-2-|
D:-2-------2-2---2-2-|-3-------3-3---3-3-|
A:-3-------3-3---3-3-|-------------------|
E:-------------------|-1-------1-1---1-1-|
           She's still clinging to the old em-
Guitar 2:
   CaddG               FaddG
e:-------------------|-------------------|
B:-------------------|-------------------|
G:-9-----------------|10-9-----5---------|
D:-------------------|---------------7---|
A:-7-----------------|-8-7-----3---------|
E:-------------------|---------------5---|



Guitar 1:
   CaddG               FaddG               C(hold)
e:-3-------3-3---3-3-|-3-------3-3---3-3-|-0-----------------|
B:-1-------1-1---1-1-|-1-------1-1---1-1-|-1-----------------|
G:-0-------0-0---0-0-|-2-------2-2---2-2-|-0-----------------|
D:-2-------2-2---2-2-|-3-------3-3---3-3-|-2-----------------|
A:-3-------3-3---3-3-|-------------------|-3-----------------|
E:-------------------|-1-------1-1---1-1-|-------------------|
  -pire    She's still clinging to the old.

Guitar 2:
   CaddG               FaddG
e:-------------------|-------------------|-------------------|
B:-------------------|-------------------|-------------------|
G:-------------------|-9-------5---------|-------------------|
D:-5-----------------|-------------------|-------------------|
A:-------------------|-7-------3---------|-------------------|
E:-3-----------------|-------------------|-------------------|


TP.




SHOOT YOUR WAY TO FREEDOM (Grant Hart)

Chords: B 7998XX    A 5776XX    E 0221XX

Intro:

   B(palm-muted)
e:---------------------------------------|
B:---------------------------------------| Play
G:-8-8-8-8---8-8-8-8---8-8-8-8---8-8-8-8-| four
D:-9-9-9-9---9-9-9-9---9-9-9-9---9-9-9-9-| times
A:-9-9-9-9---9-9-9-9---9-9-9-9---9-9-9-9-|
E:-7-7-7-7---7-7-7-7---7-7-7-7---7-7-7-7-|

Then:

Guitar 1:
   B(palm-muted)
e:---------------------------------------|
B:---------------------------------------| 
G:-8-8-8-8---8-8-8-8---8-8-8-8---8-8-8-8-| 
D:-9-9-9-9---9-9-9-9---9-9-9-9---9-9-9-9-|
A:-9-9-9-9---9-9-9-9---9-9-9-9---9-9-9-9-|
E:-7-7-7-7---7-7-7-7---7-7-7-7---7-7-7-7-|

Guitar 2:
G:---------------------------------------|
D:---------------------------------------|
A:---------------------------------------|
E:-7/9---7-----7/9-------7-------7-5-7-5-|


Guitar 1:
   B(palm-muted)
e:---------------------------------------|
B:---------------------------------------|
G:-8-8-8-8---8-8-8-8---8-8-8-8---8-8-8-8-| 
D:-9-9-9-9---9-9-9-9---9-9-9-9---9-9-9-9-| 
A:-9-9-9-9---9-9-9-9---9-9-9-9---9-9-9-9-|
E:-7-7-7-7---7-7-7-7---7-7-7-7---7-7-7-7-|

Guitar 2:
G:---------------------------------------|
D:---------------------------------------|
A:---------------------------------------|
E:-7/9---7-----7/9-------7-------9-7-9-7-|


Guitar 1:
   A                   E
e:---------------------------------------|
B:---------------------------------------|
G:-6-6-6-6---6-6-6-6---1-1-1-1---1-1-1-1-|
D:-7-7-7-7---7-7-7-7---2-2-2-2---2-2-2-2-|
A:-7-7-7-7---7-7-7-7---2-2-2-2---2-2-2-2-|
E:-5-5-5-5---5-5-5-5---0-0-0-0---0-0-0-0-|

Guitar 2:
G:---------------------------------------|
D:---------------------------------------|
A:---------------------------------------|
E:-9-5---5-----5-------7/9-------7---9---|


Guitar 1:
   B                   A
e:---------------------------------------|
B:---------------------------------------|
G:-8-8-8-8---8-8-8-8---6-6-6-6---6-6-6-6-|
D:-9-9-9-9---9-9-9-9---7-7-7-7---7-7-7-7-|
A:-9-9-9-9---9-9-9-9---7-7-7-7---7-7-7-7-|
E:-7-7-7-7---7-7-7-7---5-5-5-5---5-5-5-5-|
                                 Be -
Guitar 2:
G:---------------------------------------|
D:---------------------------------------|
A:---------------------------------------|
E:-7---9-7---7---7-----7-5---5-----5-----|

 B
-yond these iron stalls

Beyond these iron walls
              A             E
You've got to shoot, shoot, shoot
            B         A
Your way to freedom


     B
From cradle to the grave

A man is but a slave
              A             E
You've got to shoot, shoot, shoot
            B         A
Your way to freedom


Break (play the bars below twice):

Guitar 1:
   B(palm-muted)
e:---------------------------------------|
B:---------------------------------------| 
G:-8-8-8-8---8-8-8-8---8-8-8-8---8-8-8-8-| 
D:-9-9-9-9---9-9-9-9---9-9-9-9---9-9-9-9-|
A:-9-9-9-9---9-9-9-9---9-9-9-9---9-9-9-9-|
E:-7-7-7-7---7-7-7-7---7-7-7-7---7-7-7-7-|

Guitar 2:
G:---------------------------------------|
D:---------------------------------------|
A:---------------------------------------|
E:-7/9---7-----7/9-------7-------7-5-7-5-|


Guitar 1:
   B(palm-muted)
e:---------------------------------------|
B:---------------------------------------| 
G:-8-8-8-8---8-8-8-8---8-8-8-8---8-8-8-8-| 
D:-9-9-9-9---9-9-9-9---9-9-9-9---9-9-9-9-| 
A:-9-9-9-9---9-9-9-9---9-9-9-9---9-9-9-9-|
E:-7-7-7-7---7-7-7-7---7-7-7-7---7-7-7-7-|

Guitar 2:
G:---------------------------------------|
D:---------------------------------------|
A:---------------------------------------|
E:-7/9---7-----7/9-------7-------9-7-9-7-|


Guitar 1:
   A                   E
e:---------------------------------------|
B:---------------------------------------|
G:-6-6-6-6---6-6-6-6---1-1-1-1---1-1-1-1-|
D:-7-7-7-7---7-7-7-7---2-2-2-2---2-2-2-2-|
A:-7-7-7-7---7-7-7-7---2-2-2-2---2-2-2-2-|
E:-5-5-5-5---5-5-5-5---0-0-0-0---0-0-0-0-|

Guitar 2:
G:---------------------------------------|
D:---------------------------------------|
A:---------------------------------------|
E:-9-5---5-----5-------7/9-------7---9---|


Guitar 1:
   B                   A
e:---------------------------------------|
B:---------------------------------------|
G:-8-8-8-8---8-8-8-8---6-6-6-6---6-6-6-6-|
D:-9-9-9-9---9-9-9-9---7-7-7-7---7-7-7-7-|
A:-9-9-9-9---9-9-9-9---7-7-7-7---7-7-7-7-|
E:-7-7-7-7---7-7-7-7---5-5-5-5---5-5-5-5-|
                                 Be -
Guitar 2:
G:---------------------------------------|
D:---------------------------------------|
A:---------------------------------------|
E:-7---9-7---7---7-----7-5---5-----5-----|

 B
-yond these iron stalls

Beyond these iron walls
              A             E
You've got to shoot, shoot, shoot
            B         A
Your way to freedom
     B
From cradle to the grave

A man is but a slave
              A             E
You've got to shoot, shoot, shoot
            B         A
Your way to freedom


Break (play the bars below twice):

Guitar 1:
   B(palm-muted)
e:---------------------------------------|
B:---------------------------------------| 
G:-8-8-8-8---8-8-8-8---8-8-8-8---8-8-8-8-| 
D:-9-9-9-9---9-9-9-9---9-9-9-9---9-9-9-9-|
A:-9-9-9-9---9-9-9-9---9-9-9-9---9-9-9-9-|
E:-7-7-7-7---7-7-7-7---7-7-7-7---7-7-7-7-|

Guitar 2:
G:---------------------------------------|
D:---------------------------------------|
A:---------------------------------------|
E:-7/9---7-----7/9-------7-------7-5-7-5-|


Guitar 1:
   B(palm-muted)
e:---------------------------------------|
B:---------------------------------------| 
G:-8-8-8-8---8-8-8-8---8-8-8-8---8-8-8-8-| 
D:-9-9-9-9---9-9-9-9---9-9-9-9---9-9-9-9-| 
A:-9-9-9-9---9-9-9-9---9-9-9-9---9-9-9-9-|
E:-7-7-7-7---7-7-7-7---7-7-7-7---7-7-7-7-|

Guitar 2:
G:---------------------------------------|
D:---------------------------------------|
A:---------------------------------------|
E:-7/9---7-----7/9-------7-------9-7-9-7-|


Guitar 1:
   A                   E
e:---------------------------------------|
B:---------------------------------------|
G:-6-6-6-6---6-6-6-6---1-1-1-1---1-1-1-1-|
D:-7-7-7-7---7-7-7-7---2-2-2-2---2-2-2-2-|
A:-7-7-7-7---7-7-7-7---2-2-2-2---2-2-2-2-|
E:-5-5-5-5---5-5-5-5---0-0-0-0---0-0-0-0-|

Guitar 2:
G:---------------------------------------|
D:---------------------------------------|
A:---------------------------------------|
E:-9-5---5-----5-------7/9-------7---9---|



Guitar 1:
   B                   A
e:---------------------------------------|
B:---------------------------------------|
G:-8-8-8-8---8-8-8-8---6-6-6-6---6-6-6-6-|
D:-9-9-9-9---9-9-9-9---7-7-7-7---7-7-7-7-|
A:-9-9-9-9---9-9-9-9---7-7-7-7---7-7-7-7-|
E:-7-7-7-7---7-7-7-7---5-5-5-5---5-5-5-5-|
                                 Be -
Guitar 2:
G:---------------------------------------|
D:---------------------------------------|
A:---------------------------------------|
E:-7---9-7---7---7-----7-5---5-----5-----|

Then:


Shoot, shoot, shoot (repeated) - Over B-A-E-B-A Verse pattern (Played twice)

Then:

B-A-E-B-A (Verse pattern)

B-A-E-B (Verse pattern, hold final B)

TP.




PUZZLES (Grant Hart)

Chords: D  XX0232    Dsus4 XX0233    A X02220    Asus4  X02230

        Em 022000    Em7   022033    G 320033    A7sus4 X02233

Intro (same picking pattern used through verses):

   D       Dsus4       A       Asus4
e:-2-------3---2-----|-----0-------------|
B:-3-------------3---|-----2---3---2-----|
G:-2-----------------|-2-------2-----2---| Play
D:-0-----------------|-2-----------------| twice
A:-------------------|-0-----------------|
E:-------------------|-------------------|

         D          Dsus4     A    Asus4
Well the man of the law
         D           Dsus4    A    Asus4
He sits alone in his shack
         D          Dsus4     A    Asus4
And then along come two,
    D            Dsus4        A    Asus4
Two shots in the back
           D          Dsus4   A    Asus4
Well we're united for peace
        D        Dsus4        A    Asus4
But separated by colour
         D         Dsus4      A    Asus4
Well the victim is he
               D           Dsus4   A    Asus4
Whose wits and weapons are duller       We've got


   Em        Em7       G         A7sus4
e:-----------3-------|-3---3-3---3---3-3-|
B:-0---0-0---3-------|-3---3-3---3---3-3-| Carries
G:-0---0-0---0-------|-0---0-0---2---2-2-| on through
D:-2---2-2---2-------|-0---0-0---2---2-2-| chorus
A:-2---2-2---2-------|-2---2-2---0---0-0-|
E:-0---0-0-----------|-3---3-3-----------|
   so little rope                We've got so

Em      Em7       G
short a tether
A7sus4        Em           Em7    G   A7sus4
We built this city on some hope
Em            Em7        G         A7sus4
These kind of puzzles do not fit together 

D    Dsus4    A    Asus4
Yeah...

D    Dsus4    A    Asus4


             D             Dsus4     A    Asus4
Well there's bloods on the street
            D           Dsus4        A    Asus4
And there's lords up in heaven
           D             Dsus4       A    Asus4
Police are walking their beat
       D          Dsus4              A    Asus4
And no quarter is given
      D           Dsus4              A    Asus4
And a little girl screams
               D        Dsus4        A    Asus4
Some man yells stop the presses
           D            Dsus4        A    Asus4
We've interrupted these dreams
      D       Dsus4                  A    Asus4
And nobody confesses


       Em      Em7      G
We dig so many holes
A7sus4  Em      Em7     G
We bury so much treasure
A7sus4  Em      Em7     G    A7sus4
We lost so many souls
Em            Em7        G         A7sus4
These kind of puzzles do not fit together 

D    Dsus4   A    Asus4
Yeah, 
D    Dsus4   A    Asus4
Oh yeah...


Solo Break (not tabbedd) over:

Em    Em7    G    A7sus4 (Played 4 times)

D     Dsus4  A    Asus4  (Played 2 times)

       D             Dsus4           A    Asus4  
Mother waits for the first
        D        Dsus4               A    Asus4
And baby's on probation
          D         Dsus4            A    Asus4
The whole system is cursed
       D            Dsus4            A    Asus4
And it tears at the nation
          D             Dsus4        A    Asus4
There are young men and boys
    D        Dsus4                   A    Asus4
Separated by ages
               D             Dsus4   A    Asus4
They spend the rest of their days
          D          Dsus4           A    Asus4
In state and federal cages


        Em         Em7       G
Well if I ran this town
A7sus4        Em    Em7      G
Well it would be my pleasure
A7sus4         Em     Em7    G   A7sus4
We'd burn this sucker down
Em            Em7        G         A7sus4
These kind of puzzles do not fit together 
D    Dsus4
Yeah,

A         Asus4  D     Dsus4
Not fit together yeah,
A         Asus4  D     Dsus4
Not fit together yeah,
A         Asus4  D     Dsus4
Not fit together yeah,
      A             Asus4      Em(hold)
Fit together, fit together....


TP.




BUDDY (Grant Hart)

Chords: E 022100    A X02220    D XX0232

Intro (also used for verses):

   E                             A         E
e:-0---0-------0---0---0---0-0---0---0-0---0-|
B:-0---0-------0---0---0---0-0---2---2-2---0-|
G:-1---1-------1---1---1---1-1---2---2-2---1-|
D:-2---2-------2---2---2---2-2---2---2-2---2-|
A:-2---2-------2---2---2---2-2---0---0-0---2-|
E:-0---0-------0---0---0---0-0-------------0-|

   A                       D
e:-0---0-------0---0---0---2---2-----2--2--2-|
B:-2---2-------2---2---2---3---3-----3--3--3-|
G:-2---2-------2---2---2---2---2-----2--2--2-|
D:-2---2-------2---2---2---0---0-----0--0--0-|
A:-0---0-------0---0---0---------------------|
E:-------------------------------------------|

Guitar 1:
   D     E   A       E
e:-2-2---4-------------|
B:-3-3---5---2-2-------|
G:-2-2---4---2-2-------|
D:-----------2-2-----2-|
A:-----------0-0-----2-|
E:-------------------0-|

Guitar 2:
e:---0---0-------------|
B:---7---5---5b7r5-----|
G:-2/6---4---------0---|
D:-------------------2-|
A:---------------------|
E:---------------------|


E              A          E       A
You can do me any way you want to now
        D
I'm the one that showed you

D  E    A  E (riff as above)

E            A              E      A
you go to me like I'm going to you now
        D
I'm the one that showed you

D  E    A  E (played twice)

E                     A            E     A
You know about virtue and you know about sin
        D
I'll be glad to fill you...

D  E    A  E 


E                     A            E     A
You know about beauty and you know about truth
       D
I will capture all your...

D  E    A  E (played twice)


Solo (not tabbed) over:

Verse chords - E    A    E    A    D

D  E    A  E 

Verse chords - E    A    E    A    D

D  E    A  E (played twice) 

E             A           E       A
You can do me any way you want to now
        D
I'm the one that showed you

D  E    A  E

E            A              E      A
You go to me like I'm going to you now
        D
I'm the one that showed you

D  E    A  E

D  E    A  E(hold)

TP.



SEE AND FEEL AND KNOW (Grant Hart)

Chords: A 5X7655    Asus4 5X7755    B  7X9877   Bsus4 7X9977

        G 3X5433    Gsus4 3X5533    E5 X799XX   D5    X577XX

Intro:
(Note: this chord/suspension pattern continues throughout each verse 
although for ease of notation, I've only indicated the major chord) 

A  Asus4 A    B  Bsus4  B    G  Gsus4  G    A(hold)

A  Asus4 A    B  Bsus4  B    G  Gsus4  G    A

A                  B
Well I could never say
   G             A
No seven cents security
A              B
Allowing me to pay
   G            A
As satisfied as those around me
A                  B
Who've taken casualties
        G            
Looking over their shoulder
     A
At a victim that's me
A               B
We never could agree
         G                      A
But it's beginning to happen to me


      E5 / D5*// E5 / D5//  E5 /    * Release pressure on frets to mute each D5
Yes I see, yes I see, yes I see,
D5//  E5  D5  /    /   E5 /
Yes I see and feel and know
D5//         E5  / D5//  E5 /
Well I don't know, but I see
D5//  E5  D5  /    /
Yes I see and feel and

A            B
I could not abide
    G              A
The way I felt the loneliness 
A                  B
Inside, I tried to hide
              G                  A
But then it's all messed up with different rights
A                  B
You could not be denied
   G               A
So lean back and enjoy the ride
A              B
Appreciate the view
          G                        A
Well it's never really happened to you

         E5 / D5 // E5 / D5//  E5 / 
'Cause I see, yes I see, yes I see,
D5//  E5  D5  /    /   E5 /
Yes I see and feel and know
D5//         E5  / D5//  E5 /
Well I don't know, but I see
D5//  E5  D5  /    /
Yes I see and feel and 
A    B  G  A
know-oh-oh-oh

Solo (not tabbed) over:

A  Asus4 A    B  Bsus4  B    G  Gsus4  G    A (played 3 times)

      E5 / D5 // E5 / D5//  E5 / 
Yes I see, yes I see, yes I see,
D5//  E5  D5  /    /   E5 /
Yes I see and feel and know
D5//         E5  / D5//  E5 /
Well I don't know, but I see
D5//  E5  D5  /    /
Yes I see and feel and 

A            B
I suppose am true
   G             A
Am I supposed to see the lights
    A                B
And diss myself with you 
       G                 A
Well I knew you wouldn't take my cues
     A                B
The thoughts that I perused
          G                A
While the rest refused the right to choose
A                 B
Well balance is a must
        G                      A
But its beginning to happen to us


      E5 / D5 // E5 / D5//  E5 / 
Yes I see, yes I see, yes I see,
D5//  E5  D5  /    /   E5 /
Yes I see and feel and know
D5//         E5  / D5//  E5 /
Well I don't know, but I see
D5//  E5  D5  /    /   A(hold)
Yes I see and feel and know........

TP.




LITTLE MISS INFORMATION  (Grant Hart)

Chords:

G 320033   A7sus4 X02233   Csus2 X32033   D5 X577XX   C5 X355XX

Intro:

   G                       A7sus4    Csus2                   A7sus4
e:-3---3---3-3-3---3-3-3---3---3---|-3---3---3-3-3---3-3-3---3---3---|
B:-3---3---3-3-3---3-3-3---3---3---|-3---3---3-3-3---3-3-3---3---3---| Played
G:-0---0---0-0-0---0-0-0---2---2---|-0---0---0-0-0---0-0-0---2---2---| four
D:-0---0---0-0-0---0-0-0---2---2---|-2---2---2-2-2---2-2-2---2---2---| times
A:-2---2-------------------0---0---|-3---3---3-3-3---3-3-3---0---0---|
E:-3---3---------------------------|---------------------------------|

Guitar 2(Played over last two repeats of the above):

   G                       A7sus4    Csus2                   A7sus4
e:-3-------------------------------|---------------------------------|
B:-3-------------------------------|---------------------------------|
G:-4-------4/7---------------------|-5-------------------------------|
D:-5---------------4-5---4---------|-5-------------------------------|
A:-5-----------------------7-5-----|-3-------------------------------|
E:-3---------------------------7---|---------------------------------|

Verse 1:

   G                       A7sus4    Csus2                   A7sus4
e:-3---3---3-3-3---3-3-3---3---3---|-3---3---3-3-3---3-3-3---3---3---|
B:-3---3---3-3-3---3-3-3---3---3---|-3---3---3-3-3---3-3-3---3---3---| Played
G:-0---0---0-0-0---0-0-0---2---2---|-0---0---0-0-0---0-0-0---2---2---| three
D:-0---0---0-0-0---0-0-0---2---2---|-2---2---2-2-2---2-2-2---2---2---| times
A:-2---2-------------------0---0---|-3---3---3-3-3---3-3-3---0---0---|
E:-3---3---------------------------|---------------------------------|
   Picked  up  a        publication  It       had an     illustration
   The people of each    persuasion  were   holding  a  demonstration
   The   process  of     liberation  on  hold  for  the  conformation

   G                       A7sus4    Csus2                   
e:-3---3---3-3-3---3-3-3---3---3---|-3---3---3-3-3---3-3-3---3---3---|
B:-3---3---3-3-3---3-3-3---3---3---|-3---3---3-3-3---3-3-3---3---3---| Played
G:-0---0---0-0-0---0-0-0---2---2---|-0---0---0-0-0---0-0-0---0---0---| once
D:-0---0---0-0-0---0-0-0---2---2---|-2---2---2-2-2---2-2-2---2---2---| 
A:-2---2-------------------0---0---|-3---3---3-3-3---3-3-3---3---3---|
E:-3---3---------------------------|---------------------------------|
   and lighting up      information  the    armies   of   occupation

Chorus:

   D5                                C5(hold)
e:---------------------------------|---------------------------------|
B:---------------------------------|---------------------------------|
G:-7-------------------------------|-5-----------7b9r7---------------|
D:-7-------------------------------|-5-----------------5-------------|
A:-5-------------------------------|-3---------------------7-5---5---|
E:---------------------------------|---------------------------7-----|
   Miss truth is absolutely a        beautiful girl


   D5                                C5(hold)
e:---------------------------------|---------------------------------|
B:---------------------------------|---------------------------------|
G:-7-------------------------------|-5-------------------------------|
D:-7-------------------------------|-5-------------------------------|
A:-5-------------------------------|-3-------------------------------|
E:---------------------------------|---------------------------------|
 When all I said - instead I could    rule the world with a little Miss infor -

   G                       A7sus4    Csus2                 A7sus4
e:-3---3---3-3-3---3-3-3---3---3---|-3---3---------------------------|
B:-3---3---3-3-3---3-3-3---3---3---|-3---3---------------------------|
G:-0---0---0-0-0---0-0-0---2---2---|-0---0-----------------2b3r2p0---|
D:-0---0---0-0-0---0-0-0---2---2---|-2-----------------------------2-|
A:-2---2-------------------0---0---|-3-------------------------------|
E:-3---3---------------------------|---------------------------------|
  -mation

   G                       A7sus4    Csus2(hold)           A7sus4
e:-3---3---3-3-3---3-3-3---3---3---|-3-------------------------------|
B:-3---3---3-3-3---3-3-3---3---3---|-3-------------------------------|
G:-0---0---0-0-0---0-0-0---2---2---|-0-----------------4b5r4b5-2-0---|
D:-0---0---0-0-0---0-0-0---2---2---|-2-----------------------------2-|
A:-2---2-------------------0---0---|-3-------------------------------|
E:-3---3---------------------------|---------------------------------|

Verse 2:

G                    A7sus4
   She wanted co-operation
Csus2                   A7sus4
   to deal with the situation
G                         A7sus4
   'cause part of the population
Csus2                A7sus4
   suspected discrimination
G                  A7sus4
   subject to examination
Csus2             A7sus4
   suspected ejaculation
G                  A7sus4
   submitted capitulation
Csus2                
   and dignity's honouration

Chorus 2(Same guitar part as first):

D5                             C5
 Believe that honesty's like a golden youth
D5                         C5
 But who am I to lie or to tell the truth with a little Miss infor-

   G                       A7sus4    Csus2                   A7sus4
e:-3---3---3-3-3---3-3-3---3---3---|-3---3---3-3-3---3-3-3---3---3---| Played
B:-3---3---3-3-3---3-3-3---3---3---|-3---3---3-3-3---3-3-3---3---3---| twice 
G:-0---0---0-0-0---0-0-0---2---2---|-0---0---0-0-0---0-0-0---2---2---| with
D:-0---0---0-0-0---0-0-0---2---2---|-2---2---2-2-2---2-2-2---2---2---| Guitar 2
A:-2---2-------------------0---0---|-3---3---3-3-3---3-3-3---0---0---| over
E:-3---3---------------------------|---------------------------------|
   mation                                      a little Miss infor-
   mation

Solo:

   D5                                C5
e:---------------------------------|---------------------------------|
B:---------------------------------|---------------------------------|
G:-14----------14-12----11-12-11---|-7/9\7---5/7---7b9r7-------------|
D:---------------------------------|--------------------5------------|
A:-12----------12-10----9--10-9----|-5/7\5---3/5------------7-5---5--|
E:---------------------------------|----------------------------7----|

   D5                                C5
e:---------------------------------|---------------------------------|
B:---------------------------------|------------------3--------------|
G:-14----------14-12----11-12-11---|-7/9\7---5/7---3b4-3b4---3p2p0---|
D:---------------------------------|-------------------------------2-|
A:-12----------12-10----9--10-9----|-5/7\5---3/5---------------------|
E:---------------------------------|---------------------------------|

   G                       A7sus4    Csus2                   A7sus4
e:---------------------------------|---------------------------------|
B:---------------------------------|---------------------------------|
G:-----5-/-7-------5-4-------7-7---|-7-9---9p7\5-4---4b5r4b5---------|
D:---------------------7-5---------|--------------------------5------|
A:---------------------------------|-----------------------------7-5-|
E:---------------------------------|---------------------------------|

   G                       A7sus4    Csus2                   A7sus4
e:---------------------------------|---------------------------------|
B:---------------------------------|---------------------------------|
G:---------------------------------|-4-/-7-7---7-7h9p7---7p0---7b9r7-|
D:-------------------------------5-|---------------------------------|
A:---------------------------5-7---|---------------------------------|
E:-3-------------------------------|---------------------------------|
                                                               Well I 

   G                       A7sus4    Csus2                   A7sus4
e:---------------------------------|---------------------------10----|
B:---------------------------------|-------8-8---8-10-8-10---12--12--|
G:---------------------------------|-5/9-----------------------------|
D:---------------------------------|---------------------------------|
A:---------------------------------|---------------------------------|
E:---------------------------------|---------------------------------|
patrol every soul in the whole plantation                       Well I

   G                       A7sus4    Csus2                   A7sus4
e:---------------------------------|---------------------------10----|
B:---------------------------------|-10b11r10-8-10b11r10b11-10-10-12-|
G:---------------------------------|------------------------------12-|
D:---------------------------------|---------------------------------|
A:---------------------------------|---------------------------------|
E:---------------------------------|---------------------------------|
cajole and parole in  the whole dam-nation                       Well I

   G                       A7sus4    Csus2                   A7sus4
e:---------------------------------|--------15-----------------------|
B:---------------------------------|--13b14---b15---13-b-15---12-12--|
G:---------------------------------|-----------------------------12--|
D:---------------------------------|---------------------------------|
A:---------------------------------|---------------------------------|
E:---------------------------------|---------------------------------|
parole every soul in the constellation                          And I

   G                       A7sus4    Csus2                   A7sus4
e:---------------------------------|------------------10b12r10b12r10-|
B:----8b10r8-8---8----------8b10r8-|-8b10r8b10r8-10r8----------------|
G:-------------9-----7---9---------|---------------------------------|
D:---------------------------------|---------------------------------|
A:---------------------------------|---------------------------------|
E:---------------------------------|---------------------------------|
cajole and extol through the population

Chorus:

   D5                                C5(hold)
e:---------------------------------|---------------------------------|
B:---------------------------------|---------------------------------|
G:-7-------------------------------|-5-----------7b9r7---------------|
D:-7-------------------------------|-5-----------------5-------------|
A:-5-------------------------------|-3---------------------7-5---5---|
E:---------------------------------|---------------------------7-----|
   Miss truth is absolutely a        beautiful girl

   D5                                C5(hold)
e:---------------------------------|---------------------------------|
B:---------------------------------|---------------------------------|
G:-7-------------------------------|-5-------------------------------|
D:-7-------------------------------|-5-------------------------------|
A:-5-------------------------------|-3-------------------------------|
E:---------------------------------|---------------------------------|
 When all I said - instead I could   rule the world with a little Miss infor -

   G                       A7sus4    Csus2                   A7sus4
e:-3---3---3-3-3---3-3-3---3---3---|-3---3---3-3-3---3-3-3---3---3---| Repeat
B:-3---3---3-3-3---3-3-3---3---3---|-3---3---3-3-3---3-3-3---3---3---| to fade
G:-0---0---0-0-0---0-0-0---2---2---|-0---0---0-0-0---0-0-0---2---2---| with
D:-0---0---0-0-0---0-0-0---2---2---|-2---2---2-2-2---2-2-2---2---2---| Guitar 2
A:-2---2-------------------0---0---|-3---3---3-3-3---3-3-3---0---0---| over
E:-3---3---------------------------|---------------------------------|
  -mation                                    a little Miss infor -    

TP.
                      



I WON'T BE THERE ANYMORE (Grant Hart/Tom Merkl)

Chords: C X32010    Ab(intro) XX111X    Ab XX6544    F  XX3211    Bb X1333X

        G 320022    Dm  XX0231          Am X02210    Em 022000


Intro:

Guitar 1:
   C         Ab        F         Bb
e:-0---0-0-------------1---1-1-------------|
B:-1---1-1---1---1-1---1---1-1---3---3-3---| Play
G:-0---0-0---1---1-1---2---2-2---3---3-3---| four
D:-2---2-2---1---1-1---3---3-3---3---3-3---| times
A:-3---3-3-----------------------1---1-1---|
E:-----------------------------------------|

Guitar 2:
e:-----------------------------------------|
B:---------------------10--------11--10----| Play
G:-12--------13------------------------10--| four
D:-----------------------------------------| times
A:-----------------------------------------|
E:-----------------------------------------|

Then:

Ab XX6544 (strummed for a long time, with meandering lead over)


G          Dm                Am     G F Am
There's no ice that lasts forever
Em         Dm               C
There's no ice that doesn't melt
G        Dm               Am     G F Am
When the fires leave your body
Em     Dm             C
Just remember how you felt

C Dm    F  C     Dm F C
I won't be there anymore
C Dm    F  C     Dm F C
I won't be there anymore

G         Dm             Am     G F Am
With your head above the water
Em       Dm            C
It's too simple to get burned
G           Dm              Am      G F Am
When you're slipping on the surface
Em      Dm                   C
You can float on what you've learned


    C Dm    F  C     Dm F C
And I won't be there anymore
C Dm    F  C     Dm F C
I won't be there anymore



Long Break (solo not tabbed) over:

Guitar 1:
   C         Ab        F         Bb
e:-0---0-0-------------1---1-1-------------|
B:-1---1-1---1---1-1---1---1-1---3---3-3---| Play
G:-0---0-0---1---1-1---2---2-2---3---3-3---| four
D:-2---2-2---1---1-1---3---3-3---3---3-3---| times
A:-3---3-3-----------------------1---1-1---|
E:-----------------------------------------|

Guitar 2:
e:-----------------------------------------|
B:---------------------10--------11--10----| Play
G:-12--------13------------------------10--| four
D:-----------------------------------------| times
A:-----------------------------------------|
E:-----------------------------------------|

Then:

Ab XX6544 (strummed for a long time, with meandering lead over)

Then repeat verse chords:

G    Dm    Am    G F Am

Em   Dm    C

G    Dm    Am    G F Am

Em   Dm    C


    C Dm    F  C     Dm F C
And I won't be there anymore
C Dm    F  C     Dm F C
I won't be there anymore


G
You can have it babe
        Dm        Am         G F Am
You can have your pleasure
Em       Dm                  C
Makes no difference what you choose
G       Dm            Am     G F Am
Keep in mind the consequences
Em         Dm                     C
That's the price you pay when you loose

C Dm    F  C     Dm F C
I won't be there anymore
C Dm    F  C     Dm F C
I won't be there anymore
C Dm    F  C     Dm F C
I won't be there anymore
C Dm    F  C     Dm F C
I won't be there anymore



Outro:

Guitar 1:
   C         Ab        F         Bb
e:-0---0-0-------------1---1-1-------------|
B:-1---1-1---1---1-1---1---1-1---3---3-3---| Play
G:-0---0-0---1---1-1---2---2-2---3---3-3---| four
D:-2---2-2---1---1-1---3---3-3---3---3-3---| times
A:-3---3-3-----------------------1---1-1---|
E:-----------------------------------------|

Guitar 2:
e:-----------------------------------------|
B:---------------------10--------11--10----| Play
G:-12--------13------------------------10--| four
D:-----------------------------------------| times
A:-----------------------------------------|
E:-----------------------------------------|

Then:

Ab XX6544 (strummed for a long time, with meandering lead over)

Then:

G 355433 (hold)

TP.




PLEASE DON'T ASK  (Grant Hart)

Chords: Am X02210    G 320033    C X32010    Dm XX0231    F 133211

Intro(used throughout each verse):

   Am              G               C         CaddD C
e:---------0---------------3-------------------0---0---|
B:---------1---------------3-------------------3---1---|
G:---------2---2-----------0---0-------0---0---0---0---| Play
D:-----2---2-----------0-----------2-------2---2---2---| twice
A:-0-------------------------------3-------3-----------|
E:-----------------3-----------------------------------|

Am   G        C
It's all a mistake
Am             G            C
It gets kicked back in your face
Am      G          C
Oh it's all in its place
Am             G            C
It gets kicked back in your face

                 Dm                F               C
But please don't ask, please don't ask me what I'm doing
                 Dm        F                C
And please don't take your time to find out what is going on in my mind
Dm               F              C
Please, what you said were just promises instead
              Dm           F               C
Please don't, please don't ask me what I'm doing

Am   G          C
It's all in its place
Am             G            C
It gets kicked back in your face
Am      G         C
Oh it's such a mandate
Am           G                C
Don't throw away what you did not create

                 Dm                F               C
But please don't ask, please don't ask me what I'm doing
                 Dm        F                C
And please don't take your time to find out what is going on in my mind
Dm               F              C
Please, what you said were just promises instead
              Dm           F               C
Please don't, please don't ask me what I'm doing

Solo (not tabbed) over:

   Am              G               C         CaddD C
e:---------0---------------3-------------------0---0---|
B:---------1---------------3-------------------3---1---| Play
G:---------2---2-----------0---0-------0---0---0---0---| four
D:-----2---2-----------0-----------2-------2---2---2---| times
A:-0-------------------------------3-------3-----------|
E:-----------------3-----------------------------------|

   Dm          F FaddD F   C         CaddD C
e:-1-1-1-1-1---1---1---1---------------0---0---|
B:-3-3-3-3-3---1---3---1-----------1---3---1---| Play
G:-2-2-2-2-2---2---2---2---0---0---0---0---0---| four
D:-0-0-0-0-0---3---3---3---2---2---2---2---2---| times
A:-------------------------3-------------------|
E:---------------------------------------------|

Am   G          C
It's all in its place
Am             G            C
It gets kicked back in your face
Am      G          C
Oh it's such a mad race
Am           G                C
Don't throw away what you can not replace

                 Dm                   F               C
But please don't ask me, please don't ask me what I'm doing
             Dm     F                      C
Please don't try to find out what is going on in my mind
                Dm    F           C
These words you said    were just promises instead
              Dm           F               C
Please don't, please don't ask me what I'm doing

Am   G          C
It's all in its place
Am             G            C
It gets kicked back in your face
Am  G         C
Dissolve into grace....

Am   G    C(hold)

Pause then epic solo outro (not Tabbed) over:

   Dm          F FaddD F   C         CaddD C
e:-1-1-1-1-1---1---1---1---------------0---0---|
B:-3-3-3-3-3---1---3---1-----------1---3---1---| Play
G:-2-2-2-2-2---2---2---2---0---0---0---0---0---| seven
D:-0-0-0-0-0---3---3---3---2---2---2---2---2---| times
A:-------------------------3-------------------|
E:---------------------------------------------|


Dm(hold)    F(hold)    C(hold)    C(strum madly).


TP.



THE SINS OF THEIR SONS (Grant Hart)

* I'm not sure about 'preacher' in the first line - it could be 'peach'
but wouldn't make as much sense.

Chords:

F#5  244XXX    Ab5 466XXX    A5 577XXX    E  0221XX    E+F# X24XXX

F#5* X466XX    E5  X224XX    B5 X244XX    Bm X24322

Introduction (played once):

   F#5                      Ab5 A Ab5 E                (hold)

   1 2 3 4  1 2 3 4  1 2 3 4  1 2 3 4   1 2 3 4  1 2 3 4  1 2 3 4  1 2 3 4
e:------------------------------------|------------------------------------|
B:------------------------------------|------------------------------------|
G:------------------------------------|-1---1--------1-1-------------------|
D:---4-4-4----4-4-4----4-4-4--6-7-6-2-|-2---2--------2-2-------------------|
A:---4-4-4----4-4-4----4-4-4--6-7-6-2-|-2---2--------2-2-------------------|
E:-0-2-2-2--0-2-2-2--0-2-2-2--4-5-4-0-|-0---0--------0-0-------------------|


   E5 E+F#(riff)                                 F#5(hold)
   1 2 3 4  1 2 3 4  1 2 3 4  1 2 3 4   1 2 3 4  1 2 3 4  1 2 3 4  1 2 3 4
e:------------------------------------|------------------------------------|
B:------------------------------------|------------------------------------|
G:------------------------------------|------------------------------------|
D:-2---4p2--2h4p2----2h4p2----2h4p2---|-4p2-4p2--4-------------------------|
A:-2---2-2--2-2-2----2-2-2----2-2-2---|-2-2-2-2--4-------------------------|
E:------------------------------------|----------2-------------------------|


Verse 1 (the chord pattern continues for each verse):

   F#5                      Ab5 A Ab5 E                (hold)

   1 2 3 4  1 2 3 4  1 2 3 4  1 2 3 4   1 2 3 4  1 2 3 4  1 2 3 4  1 2 3 4
e:------------------------------------|------------------------------------|
B:------------------------------------|------------------------------------|
G:------------------------------------|-1---1--------1-1-------------------|
D:---4-4-4----4-4-4----4-4-4--6-7-6-2-|-2---2--------2-2-------------------|
A:---4-4-4----4-4-4----4-4-4--6-7-6-2-|-2---2--------2-2-------------------|
E:-0-2-2-2--0-2-2-2--0-2-2-2--4-5-4-0-|-0---0--------0-0-------------------|
  Dirty old preacher* and a couple of   nuns Sat around and talked about the

   E5 E=F#(riff)                                 F#5(hold)
   1 2 3 4  1 2 3 4  1 2 3 4  1 2 3 4   1 2 3 4  1 2 3 4  1 2 3 4  1 2 3 4
e:------------------------------------|------------------------------------|
B:------------------------------------|------------------------------------|
G:------------------------------------|------------------------------------|
D:-2---4p2--2h4p2----2h4p2----2h4p2---|-4p2-4p2--4-------------------------|
A:-2---2-2--2-2-2----2-2-2----2-2-2---|-2-2-2-2--4-------------------------|
E:------------------------------------|----------2-------------------------|
   sins                                The sins of their sons

F#5                                         Ab5 A5 Ab5 E
Gonna send them to church, gonna teach them to         pray
E                                         E5 E+F#(riff)  F#5
Gonna see 'em down part of the peace some day, hey, hey, hey..

Chorus:

    F#5*    E5         F#5
Sometimes I don't know why we bother
    F#5*      E5       F#5
Sometimes you act just like your father
B5
Mother you're just as much a part of me
                    Bm(hold)
As least as much as daddy


F#5                                Ab5 A5 Ab5 E
Buy them books, gonna send 'em to school
E                                            E5 E+F#(riff)  F#5
Gonna teach them to read and follow the rules   Cool, cool, cool
F#5                                         Ab5 A5 Ab5 E
Gonna give them a job, gonna teach 'em to steal
E                                           E5 E+F#(riff)    F#5
You gotta work, work, work for the next meal  And that's the deal


    F#5*    E5         F#5
Sometimes I don't know why we bother
    F#5*      E5       F#5
Sometimes you act just like your father
B5
Mother you're just as much a part of me
                    Bm(hold)
As least as much as daddy


Break (Not tabbed - over verse chords):

F#5                Ab5 A5 Ab5 
E                  E5 E+F#(riff)  F#5

F#5                Ab5 A5 Ab5 
E                  E5 E+F#(riff)  F#5


    F#5*    E5         F#5
Sometimes I don't know why we bother
    F#5*      E5       F#5
Sometimes you act just like your father
B5
Mother you're just as much a part of me
                    Bm(hold)
As least as much as daddy


F#5                                         Ab5 A5 Ab5 E
Well dirty old preacher and a couple of nuns
E                                   E5 E+F#(riff)       F#5
Sat around and talked about the sins  The sins of their sons
F#5                                            Ab5 A5 Ab5 E
Gonna send them to church  Gonna teach them to pray
E                                         E5 E+F#(riff)  F#5
Gonna see 'em down part of the peace some day, hey, hey, hey..



    F#5*    E5         F#5
Sometimes I don't know why we bother
    F#5*      E5       F#5
Sometimes you act just like your father
B5
Mother you're just as much a part of me
                    Bm(hold)           F#5(hold)
As least as much as daddy, hey, hey....

TP.



BEYOND A REASONABLE DOUBT (Grant Hart)

Chords:

E 022100    Fmaj7+B 133200     G 355433    Bb 688766    C 8,10,10,988

Bb5 688XXX  C5  8,10,10XXX     G5 355XXX

Intro (play this pattern through the verses and chorus):

   E       Fmaj7+B   G                   Bb            C       G
e:-----0-------0-----3---0---------3---|-------6-------8-----------3-3---|
B:-----0-------0-----3---0---------3---|-------6-------8---8-------3-3---|
G:-----1-------2-----0-------------0---|---7---7-------9---9-------4-4---|Play
D:---------------------------5-5-------|---8---------------10--5---------|twice
A:-2-------3-----3-----------5-5-------|-8---------8-/---------5---------|
E:-0-------1-----1-----------3-3-------|-6---------6-/---------3---------|


E    Fmaj7+B   G
Consider where you are
Bb               C             G
Oh, where you're placed to the shine of it
E     Fmaj7+B G
You carry it  too far
Bb      C            G
You can shun all, or part of it

E            Fmaj7+B  G
Oh, what it is you're reaching for
Bb       C    G
Reaching understanding
E             Fmaj7+B  G
They'll reach for more and more
Bb          C      G
Be more and more demanding

E       Fmaj7+B G
Beyond, beyond, beyond
Bb       C      G
Beyond a reasonable
E       Fmaj7+B G
Beyond, beyond, beyond
Bb       C      G
Beyond a reasonable


E Fmaj7+B    G
A force that guarantees
Bb     C       G
Better be some truth to it
E     Fmaj7+B     G
Guarantees things frequently
Bb           C        G
You might as well get used to it


E  Fmaj7+B G
Consider   first
Bb        C         G
Try to consider the episode
E    Fmaj7+B      G
Stay glued to a familiar course
Bb       C    G
Sticking to familiar roads


E       Fmaj7+B G
Beyond, beyond, beyond
Bb       C      G
Beyond a reasonable
E       Fmaj7+B G
Beyond, beyond, beyond
Bb       C      G
Beyond a reasonable


Break:

Bb5                         C5
Oh here, take the I.   O.   U.
              G5
Take the I.   O.   U.

Take the I.   O.   U.
     Bb5
Take the I.   O.   U.
C5                 G5
Take the I.   O.   U.

Take the I.   O.   U. The -  

Solo (not tabbed) over intro riff:

   E       Fmaj7+B   G                   Bb            C       G
e:-----0-------0-----3---0---------3---|-------6-------8-----------3-3---|
B:-----0-------0-----3---0---------3---|-------6-------8---8-------3-3---|
G:-----1-------2-----0-------------0---|---7---7-------9---9-------4-4---|Play
D:---------------------------5-5-------|---8---------------10--5---------|twice
A:-2-------3-----3-----------5-5-------|-8---------8-/---------5---------|
E:-0-------1-----1-----------3-3-------|-6---------6-/---------3---------|
   I...........


E           Fmaj7+B    G
Call your attention to detail
Bb        C          G
Draw your markers in right away
E              Fmaj7+B G
'Cause all the insti - tutions fail
Bb           C          G
And all this good won't fade away


E              Fmaj7+B   G
Yeah, what you wanted to know a - ho..
Bb          C   G
Go use your intuition
E            Fmaj7+B        G
Don't second guess yourself though
Bb           C            G
You can live without institutions


E       Fmaj7+B G
Beyond, beyond, beyond
Bb       C      G
Beyond a reasonable
E       Fmaj7+B G
Beyond, beyond, beyond
Bb       C      G
Beyond a reasonable
E       Fmaj7+B G
Beyond, beyond, beyond
Bb       C      G
Beyond a reasonable
E       Fmaj7+B G
Beyond, beyond, beyond
Bb       C      G
Beyond a reasonable
E       Fmaj7+B G
Beyond, beyond, beyond
Bb       C      G
Beyond a reasonable
E       Fmaj7+B G
Beyond, beyond, beyond
Bb       C      G
Beyond a reasonable


Outro is main riff with solo (not tabbed) over:


E    Fmaj7+B    G    Bb    C    G

E    Fmaj7+B    G    Bb    C    G

E    Fmaj7+B    G    Bb    C    G

Slowing:

E    Fmaj7+B    G    Bb    C    G


TP.




IF I WAS AFRAID/CODA (Grant Hart/Tom Merkl - Grant Hart/Chris Hesler)

Chords:

C  X32010    CaddD X32030    D   XX0232    Dm XX0231    CaddG X32013

F  133211    Fm    133111    G   320033 

C5 X355XXX   D5    X577XXX   Dm* X57765

Note: Both the CaddD and CaddG involve a lot of 'pulling off' 
and 'hammering on' of the added note with your little finger.


Intro:

C   CaddD    D    Dm    C    CaddD

C   CaddD    D    Dm    C    CaddD

CaddG
If I was afraid 
  F               Fm
I couldn't take a chance on love
CaddG
If I was afraid 
  F                 Fm
I couldn't face the day
CaddG
Can't you see it in my eyes
         F              Fm
That I'm not afraid I'm terrified
CaddG            G              CaddG
I wouldn't be dismayed if I was afraid


CaddG
If I was afraid 
    F                  Fm
The world would be too challenging
CaddG
If I was afraid 
    F             Fm
I'd collapse into tears
         CaddG
Oh I can see it in my dream
         F          Fm
That I'm not alone, alone with you
CaddG              G            CaddG
I wouldn't be that way if I was afraid

Break:

C   CaddD    D    Dm    C    CaddD

C   CaddD    D    Dm    C    CaddD

C5    D5    Dm*    C5

C5    D5    Dm*    C5

Repeat everything below five times (to fade):

C5
You walk out of the car

Well here's what you do
             D5
You take the fifteenth box

Do a circuit of the avenue
   Dm*                                       C5
Go off down town and I'll be waiting for you

C5
Walk out of the bridges

With some hippy chicks
             D5
And take the fifteenth alleyway

And then hit the bricks
      Dm*
Go on round the back
                           C5
And then I'm here with you


TP.


Note:
This is where the album ends but you lucky americans also got the 
following two tracks on the Restless released version (7 72762-2).




NOT TALKING ABOUT (Grant Hart)

Chords:

Csus2 X3553X    Dsus2 X5775X     F  X335XX    G X557XX

D5 X577XXX      F5    133XXX     G5 355XXX

Intro (continues during the verses):

   Csus2         Dsus2
e:-----------------------------|
B:-3---3---3-----5---5---5-----|
G:-5---5-----5---7---7-----7---| Play
D:-5---5---------7---7---------| twice
A:-3---3---------5---5---------|
E:-----------------------------|

Csus2  Dsus2         Csus2
By the light or by design
      Dsus2         Csus2
Or provision of the blind
          Dsus2            Csus2
Drop your fence so you can be
         Dsus2
A worthy saint for free

             F                 G
Well I'm not talking about the future now
            F                 G
And I'm not talking about the end of time
            F                G
And I'm not talking about forever now
            F                 G
And I'm not talking about the river-side

Csus2     Dsus2          Csus2
Spend the day inside the sweetness
        Dsus2
That surrounds
         Csus2          Dsus2
Do you remember when it had it?
        Csus2         Dsus2
Does it matter to you now?


             F                 G
Well I'm not talking about the future now
            F                 G
And I'm not talking about the end of time
            F                G
And I'm not talking a double negative
        F                G
I'm not talking about no compromise, am I?


Break (solo not tabbed over verse and chorus pattern):

Csus2    Dsus2    Csus2    Dsus2

Csus2    Dsus2    Csus2    Dsus2

F        G        F        G

F        G        F        G

D5       F5       D5       G5 

D5       F5       D5       G5 

D5       G5       D5       G5

Csus2   Dsus2          Csus2
Pouring gold into your lap
        Dsus2
Life is such a pay-back
Csus2            Dsus2
Patience written in the rain
  Csus2           Dsus2
I will not say it a - gain


             F                 G
Well I'm not talking about the future now
            F                 G
And I'm not talking about the end of time
            F                G
And I'm not talking about forever now
            F                 G
And I'm not talking about the river-side

            F               G
And I'm not talking about a safety-line
            F                G
And I'm not talking about no seven sins
        F                G
I'm not talking about no agony
        F                 G(hold)
And I'm not talking about no...


TP.



EVERGREEN MEMORIAL DRIVE  -  (Grant Hart)

Intro chords:

D XX0232    F/D XX0565    G/D XX0787    

Verse chords:

D5 X577XX   C5 X355XXX    G5* X557XX

Chorus chords:

D5 X577XX   C5 X355XXX    G5  355XXX

Break chords (best approximation for solo guitar):

D XX023X    CaddD X3203X  G   32003X

Outro Chords:

D XX023X    D/F XX323X    D/G XX003X


Intro: 

D / / / / / / /   F/D / / /    G/D / / /  

D / / / / / / /   F/D / / /    G/D / / /  

D / / / / / / /   F/D / / /    G/D / / /  

D / / / / / / /   F/D / / /    G/D / / /  

D5
Up on highway twenty-three
G5*
greener than the greenest can be
C5
it was you and me
                  D5     C5/D5\C5/D5\C5/D5 (slide quickly up and down)
the way it should be
D5
Out there on lake eleven
G5*
bluer than the bluest heaven
C5               D5     C5/D5\C5/D5\C5/D5
It was more than southern


D5              C5     G5
Oh, Evergreen Memorial Drive
    D5         C5     G5
Oh, Evergreen Memorial Drive

D5
As cove as northern witches
G5*
Naked son a son of a bitch is
C5
With nothing but kind words
                D5     C5/D5\C5/D5\C5/D5
for people they say
D5
Up there on the northern shore
G5*
Forty miles from a liquor store
C5                                 D5     C5/D5\C5/D5\C5/D5
Oh it was this and more the way I adore

D5              C5     G5
Oh, Evergreen Memorial Drive
    D5         C5     G5
Oh, Evergreen Memorial Drive
    D5         C5     G5
Oh, Evergreen Memorial Drive
    D5         C5     G5
Oh, Evergreen Memorial Drive


Solo(not tabbed) over verse and chorus chords:

D5    G5*    C5    D5     C5/D5\C5/D5\C5/D5

D5    G5*    C5    D5     C5/D5\C5/D5\C5/D5

D5    C5     G5

D5    C5     G5

D5    C5     G5

D5    C5     G5


D5
As cove as northern witches
G5*
Naked son a son of a bitch is
C5
With nothing but kind words
                D5     C5/D5\C5/D5\C5/D5
for people they say
D5
Out there on the northern shore
G5*
Forty miles from a liquor store
C5                                 D5     C5/D5\C5/D5\C5/D5
Oh it was this and more the way I adore


D5              C5     G5
Oh, Evergreen Memorial Drive
    D5         C5     G5
Oh, Evergreen Memorial Drive
    D5         C5     G5
Oh, Evergreen Memorial Drive
    D5         C5     G5
Oh, Evergreen Memorial Drive

Solo (not tabbed) over chorus chords:

D5    C5     G5

D5    C5     G5

D5    C5     G5

D5    C5     G5


Break (Note: on the record the D5 chord is held and the C and G
notes are played by the bass):

        D(hold)
You can see what I want

You can see what I mean
          CaddD(hold)           G(hold)
If you've ever been down on the Evergreen
        D(hold)
You can see what I want

You can see what I mean
          CaddD(hold)           G(hold)
If you've ever been down on the Evergreen
        D(hold)
You can see what I want

You can see what I mean
          CaddD(hold)           G(hold)
If you've ever been down on the Evergreen
        D(hold)
You can see what I want

You can see what I mean
          CaddD(hold)           G                    
If you've ever been down on the Evergreen Memorial 
D         CaddD     G
DRIVE!...

D5////(hold)  C5  G5 (chorus chords)

D5////(hold)  C5  G5

D5////(hold)  C5  G5

D5    C5  G5

D5    C5  G5

D5    C5  G5

D5    C5  G5

Outro:

D(hold)    D/F(hold)    D/G(hold)

D/F(hold)  D/G(hold)

D/F(hold)  D/G(hold)    

D(hold)


TP.
 
comments
We did not receive enough feedback on this tab! Please rate:
print report bad tab
1 2 3 4 5
I want to post or [tab]
guest
You may want to rate the tab now too:
select rating
Please do not post tabs as comments. Select "correction" instead!