Oops, an error
Loading. Please wait.

Osamuraisan - Senbonzakura Tab

15,503 views 342 this week
1 commentread comment
1 2 3 4 5
excellent!
x 8
add to favorites launch autoscroll
font size
0
reset
Autoscroll
+/-
esc
set tempo
stop
Contributor
Difficulty
intermediate
WARNING: You are trying to view
                                    content from Ultimate-Guitar.com
                                    in an unauthorized application,
                                    which is prohibited.

                                    Please use an official Ultimate
                                    Guitar Tabs application for iPhone,
                                    iPad or Android to access legitimate
                                    chords, guitar, bass, and drum tabs
                                    from Ultimate-Guitar.com database.

                                    Type "ultimate guitar tabs" in Apple
                                    App Store's or Android Market's
                                    search to find the application.
-------------------------------------------------------------------------------
                             Senbonzakura - Osamuraisan (originally Miku Hatsune)
-------------------------------------------------------------------------------
Tabbed by: Neil Wicker
E-mail: wicker101@hotmail.co.uk

Tuning: Standard

please note:

-tabbed from this video http://www.youtube.com/watch?v=81_wklJTFRc

-when there are 4 notes at once like at the end of the second bar most of the time this 
is played in a sweeping motion somewhere between a single pick and full strum.

-this song is difficult and I recommend playing along with the song a lot to get an 
understanding on the timing throughout.

-please rate if you find this tab useful.

--
0:02 - 0:11

e|--------------------------------------|-----------------------------0-|
B|-----------------------------------1--|--------------------1--1--3--0-|
G|--2--2--0--2--2--0--2--2--0--2--2--2--|--2--2--0--2--2--0--2--0--0--1-|
D|--2--2--2--2--2--2--2--2--2--2--2-----|--2--2--2--2--2--2--2--2--4--2-|
A|--0-----------------------------------|--0-----------------0--------2-|
E|--------------------------------------|-----------------------3--5--0-|

--
0:11 - 0:30

e|-----0-------------0-----------|-----0--------------------------|
B|--3-------------3--------------|--3-------------1--0h1p0--------|
G|--2-----0h2--0--0-----0h2--0---|--2-----0h2--0------------2--0--|
D|--3-------------0--------------|--0-----------------------------|
A|-------------------------------|--0-----------------------------|
E|--1-------------3--------------|----------------0---------------|

e|-----0-------------0-----------|-----------8--7--5--3--0--------|
B|--3-------------3--------------|--3--5--8-----7--5--3--0--------|
G|--2-----0h2--0--0-----0h2--0---|--2--4--7-----------------------|
D|--3-------------2--------------|--------------------------------|
A|-------------------------------|--0-----------------------------|
E|--1-------------3--------------|--------------0-----------------|

e|-----0-------------0-----------|-----0--------------------------|
B|--3-------------3--------------|--3-------------1--0h1p0--------|
G|--2-----0h2--0--0-----0h2--0---|--2-----0h2--0------------2--0--|
D|--3-------------0--------------|--0-----------------------------|
A|-------------------------------|--0-----------------------------|
E|--1-------------3--------------|----------------0---------------|
                                              [short guitar percussion here]
e|-------------------------------|--------------------------------|
B|-----------1--3-----0----------|--------------------------------|
G|--2--0--2-----0--------0-------|--2--2--0--2--------------------|
D|--3-----------0--0-------------|--2--2--2--2--------------------|
A|--0----------------------------|--------------------------------|
E|--1-----------3----------------|--------------------------------|

---
0:30 - 0:48

e|--0-----------------0--|--------------------------|
B|--0-----------1--3-----|-----1--------------------|
G|--2--2--0--2-----------|--2--------2--2--0-----0--|
D|--2--------------------|--3-----3-----0-----2-----|
A|-----------------------|--------------------------|
E|-----------------------|--1-----------3-----------|

e|--------------------0--|--0-----------------------|
B|--------------1--3-----|--------3p1---1-----------|
G|--2--2--0--2-----------|--------2-----2-----2--0--|
D|--2--2-----------------|-----3-----------0--------|
A|--0--------------------|--------------------------|
E|-----------------------|--1-----------3-----------|

e|--------------------0--|--------------------------|
B|--------------1--3-----|-----1--------------------|
G|--2--2--0--2-----------|--2--------2--2--0------0-|
D|--2--2-----------------|--3-----3-----0-----1h2---|
A|--0--------------------|--------------------------|
E|-----------------------|--1-----------3-----------|

e|--------------------0--|--0---------0-------------|
B|--------------1--3-----|--------3p1---1-----------|
G|--2--2--0--2-----------|--------------2-----2-----|
D|--2--2-----------------|-----3-----------0-----0--|
A|--0--------------------|--------------------------|
E|-----------------------|--1-----------3-----------|

--
0:48 - 1:05

e|-------------------------|-------------------------|------------------------|
B|--1-----0----------------|-------------------------|--------------3-----0---|
G|--2-----------2----0-----|--2--0h2--------------0--|--------2--0--0---------|
D|--3--------3-----3----3--|--2-------2--0--2--2-----|--3-----------0--------0|
A|--3--3-------------------|-------------------------|-----3--------3--3------|
E|-------------------------|--0----------------------|--1---------------------|

e|-------------------------|-------------------------|------------------------|
B|--1-----0----------------|--3-----0----------------|------------------------|
G|--2--------0--2-----2----|--2-----------2-----0----|--2--0h2--------------0-|
D|--2--------------2-------|--3--------3-----3-----3-|--2-------2--0--2--2----|
A|--0--0-------------------|--3--3-------------------|------------------------|
E|-------------------------|-------------------------|--0---------------------|

e|-------------------------|--------------------0----|
B|-------------------3-----|--0--------------0--0----|
G|--2--2----2--2-----------|--1-----------1-----1----|
D|--0--0----0--0--0-----0--|--2-----2----------------|
A|-------------------------|-------------------------|
E|--2--2----2--2-----------|--0--0-------------------|

--
1:07 - 1:24

e|--------------0--0--------0--|--3--5p3--0-----0-----------|
B|-----1--3--3-----1--------0--|--3----------3--1--------1--|
G|--2-----2--------2-----2-----|--0-------------2-----2-----|
D|--------3-----------3--------|-----0-------------3--------|
A|--------0--------------------|----------------0-----------|
E|-----------------1-----------|--3-------------------------|

e|-----------0--0--------0-----|--1--0-----------------0----|
B|--3-----3-----1--------0-----|--0-----3--1--1--------0----|
G|--2-----------2-----2--------|--0-----0--0--0-----0-------|
D|-----0-----------3-----------|--------------2--2----------|
A|--0--------------------------|--------------3-------------|
E|--------------1--------------|--3-------------------------|

e|-----------0--0--------0-----|--3--5p3--0-----0-----------|
B|--3-----3-----1--------0-----|--3----------3--1--------1--|
G|--2-----------2-----2--------|--0-------------2-----2-----|
D|-----0-----------3-----------|-----0-------------3--------|
A|--0--------------------------|----------------0-----------|
E|--------------1--------------|--3-------------------------|

e|--1-----0--------------------|-----0----------------------|
B|--1-----------3------1-------|--3-------------------------|
G|--2--2-----0--2------0-------|--2-----0-----2-------------|
D|--------------3---3-----3----|--3--------2--2-------------|
A|-----------------------------|--------------0-------------|
E|--1-----------0--------------|--1-----3-----0-------------|

--
1:25 - 1:41

e|--------------0--0--------0--|--3--5p3--0-----0-----------|
B|-----1--3--3-----1--------0--|--3----------3--1--------1--|
G|--2-----2--------2-----2-----|--0-------------2-----2-----|
D|--------3-----------3--------|-----0-------------3--------|
A|--------0--------------------|----------------0-----------|
E|-----------------1-----------|--3-------------------------|

e|-----------0--0--------0-----|--1--0-----------------0----|
B|--3-----3-----1--------0-----|--0-----3s5s4-1--------0----|
G|--2-----------2-----2--------|--0-----0-----0-----0-------|
D|-----0-----------3-----------|--------------2--2----------|
A|--0--------------------------|--------------3-------------|
E|--------------1--------------|--3-------------------------|

e|-----------0--0--------0-----|--3--5p3--0-----0-----------|
B|--3-----3-----1--------0-----|--3----------3--1--------1--|
G|--2-----------2-----2--------|--0-------------2-----2-----|
D|-----0-----------3-----------|-----0-------------3--------|
A|--0--------------------------|----------------0-----------|
E|--------------1--------------|--3-------------------------|

e|--1-----0--------------------|--------0--3--5-------------|
B|--1-----------3------1-------|--3--1--0--3--5-------------|
G|--2--2-----0--2------0-------|--2-----0-----5-------------|
D|--------------3---3-----3----|--3-------------------------|
A|-----------------------------|----------------------------|
E|--1-----------0--------------|--1-----3-----5-------------|

--
1:42 - 2:00

 single strum chords                    strumming chords (3 times each)
e|--0--0--0--0--0--0--0--------|--0--0--0--1--1--0--0--0--0--|
B|--1--1--0--0--1--1--0--------|--0--1--1--3--3--1--1--0--0--|
G|--0--0--0--0--0--0--0--------|--1--0--0--2--2--0--0--0--0--|
D|--2--3--0--2--2--3--0--------|--2--2--2--3--3--2--2--0--0--|
A|--0--0--2--3--0--0--2--------|--2--0--0--1--1--0--0--2--2--|
E|--0--0--3--0--0--0--3--------|--0--0--0--1--1--0--0--3--3--|

--
2:00 - 2:16

e|--0--0-------------0-----------|-----0--------------------------|
B|--3-------------3--------------|--3-------------1--0h1p0--------|
G|--2-----0h2--0--0-----0h2--0---|--2-----0h2--0------------2--0--|
D|--3-------------0--------------|--0-----------------------------|
A|--0----------------------------|--0-----------------------------|
E|--1-------------3--------------|----------------0---------------|

e|-----0-------------0-----------|-----------8--7--5--3--0--------|
B|--3-------------3--------------|--3--5--8-----7--5--3--0--------|
G|--2-----0h2--0--0-----0h2--0---|--2--4--7-----------------------|
D|--3-------------2--------------|--------------------------------|
A|-------------------------------|--0-----------------------------|
E|--1-------------3--------------|--------------0-----------------|

e|-----0-------------0-----------|-----0--------------------------|
B|--3-------------3--------------|--3-------------1--0h1p0--------|
G|--2-----0h2--0--0-----0h2--0---|--2-----0h2--0------------2--0--|
D|--3-------------0--------------|--0-----------------------------|
A|-------------------------------|--0-----------------------------|
E|--1-------------3--------------|----------------0---------------|

e|-----------------0-------------|--------------------------------|
B|-----------1--3----------------|--------------------------------|
G|--2--0--2-----0-----2--0--2----|--------------------------------|
D|--3-----------0-----------2----|--------------------------------|
A|--0-----------------------0----|--------------------------------|
E|--1-----------3----------------|--------------------------------|

--
2:20 - 2:34

e|-------------------------|-------------------------|------------------------|
B|--1-----0----------------|-------------------------|--------------3-----0---|
G|--2-----0-----2-----0----|--0--2-------------------|--------2-----0---------|
D|--3-----------3-----3----|--------2--0--2----------|--3---------------------|
A|-------------------------|-------------------------|------------------------|
E|--1--1--1--1--1--1--1--1-|--0--0--0--0--0--0--0--0-|--1--1--1--1--3--3--3--3|

e|-------------------------|-------------------------|------------------------|
B|--1-----0----------------|--1-----0----------------|------------------------|
G|--2--------0--2----------|--2-----0-----2-----0----|--0--2-----------------0|
D|-------------------------|--3-----------3-----3----|--------2--0--2-----2---|
A|--0--0--0--0--0--0--0--0-|-------------------------|------------------------|
E|-------------------------|--1--1--1--1--1--1--1--1-|--0--0--0--0--0--0--0--0|

e|-------------------------|--0--0--0--0--0--12+--0--5+-|
B|-------------------3-----|--0--0--0--0--0--12+--0--5+-|
G|--2--2----2--2-----------|--1--1--1--1--1-------1-----|
D|--0--0----0--0--0-----0--|--2--2--2--2--2-------2-----|
A|-------------------------|--2--2--2--2--2-------2-----|
E|--2--2----2--2-----------|--0--0--0--0--0-------0-----|

--
2:35 - 2:49

e|--------------0--0--------0--|--3--5p3--0-----0-----------|
B|-----1--3--3-----1--------0--|--3----------3--1--------1--|
G|--2-----2--------2-----2-----|--0-------------2-----2-----|
D|--------3-----------3--------|-----0-------------3--------|
A|--------0--------------------|----------------0-----------|
E|-----------------1-----------|--3-------------------------|

e|--------------0--0--------0--|--1--0--0--0-----------0----|
B|-----1--3--3-----1--------0--|--0-----3--1--1--------0----|
G|--2-----2--------2-----2-----|--0-----------0-----0-------|
D|--------3-----------3--------|--------------2--2----------|
A|--------0--------------------|--------------3-------------|
E|-----------------1-----------|--3-------------------------|

e|--------------0--0--------0--|--3--5p3--0-----0-----------|
B|-----1--3--3-----1--------0--|--3----------3--1--------1--|
G|--2-----2--------2-----2-----|--0-------------2-----2-----|
D|--------3-----------3--------|-----0-------------3--------|
A|--------0--------------------|----------------0-----------|
E|-----------------1-----------|--3-------------------------|

e|--1-----0--------------------|-----0----------------------|
B|--1-----------3------1-------|--3-----------------------1-|
G|--2--2-----0--2------0-------|--2-----0-----2---------2---|
D|--------------3---3-----3----|--3--------2--2-------------|
A|-----------------------------|--------------0-------------|
E|--1-----------0--------------|--1-----3-----0-------------|

--
2:50 - 3:09

this is just a guide of how to play this part, V for down strum and ^ for up strum.
Use a lot of palm muting and practice... it's one of the more difficult
parts of the song. Again, playing along with the song will help.

    V  ^ V  ^   V  V ^     V  ^ V  ^   V  V ^     V  ^ V  ^   V  V ^
e|--0--0-0--0---2--2-2--|--5--5-7--5---2--0-0--|--0--0-0--0---2--2-2----|
B|--0--0-0--0---0--0-0--|--0--0-0--0---3--0-3--|--0--0-0--0---0--0-0----|
G|--0--0-0--0---0--0-0--|--6--6-6--6---2--2-2--|--0--0-0--0---0--0-0----|
D|--0--0-0--0---0--0-0--|--7--7-7--7---0--0-0--|--0--0-0--0---0--0-0----|
A|--2--2-2--2---0--0-0--|--0--0-0--0---0--0-0--|--2--2-2--2---0--0-0----|
E|--------------3--3-3--|----------------------|--------------3--3-3----|

    V   ^ V   V  ^         V  ^ V  ^   V  V ^     V  ^ V  ^   V  V ^
e|--0h2-2-2p0-2--2------|--0--0-0--0---2--2-2--|--5--5-5--5---2--0-0----|
B|--0---0-0---3--3p0----|--0--0-0--0---0--0-0--|--0--0-0--0---3--0-3----|
G|--0---0-0---2--2------|--0--0-0--0---0--0-0--|--6--6-6--6---2--2-2----|
D|--0---0-0---0--0------|--0--0-0--0---0--0-0--|--7--7-7--7---0--0-0----|
A|--2---2-2---0--0------|--2--2-2--2---0--0-0--|--0--0-0--0---0--0-0----|
E|------------3--3------|--------------3--3-3--|------------------------|

e|--3--2--0--0--0--2--3--5--7---------------7+-|
B|--0--0--0--3--0--0--0--0--0---------------7+-|
G|--0--0--0--0--0--0--0--5--7---------------7+-|
D|------------------------------------------7+-|
A|--------------------------7---------------7+-|
E|--3--0--2--0--2--0--3--5------------------7+-|

--
3:10 - end

e|--0--2---------0--2---------|--0--2-------------------------|
B|--0-------0----0-------0----|--0-------0----3--2h3p2--------|
G|--0-----2---2--2-----2---2--|--0-----2---2------------4--2--|
D|--0------------0------------|--0----------------------------|
A|--0------------0------------|--2------------0---------------|
E|--3-------------------------|-------------------------------|

e|--0--2---------0--2---------|--0--2-------------------------7+----|
B|--0-------0----0-------0----|--0-------0------12+----7+--------7+-|
G|--0-----2---2--2-----2---2--|--0-----2---2--------7+----7+--------|
D|--0------------0------------|--0------------7+--------------------|
A|--0------------0------------|--2----------------------------------|
E|--3-------------------------|---------------0---------------------|

e|--0--2---------0--2---------|--0--2-------------------------|
B|--0-------0----0-------0----|--0-------0----3--2h3p2--------|
G|--0-----2---2--2-----2---2--|--0-----2---2------------4--2--|
D|--0------------0------------|--0----------------------------|
A|--3------------0------------|--2------------0---------------|
E|--3-------------------------|-------------------------------|

                               [ending chords]
e|--------------0--2-----------|--------0---19+------|
B|-----------3--0-----0-----0--|--------3-------19+--|
G|--4--2--4--------------2-----|--0--4--0------------|
D|--0--------------------------|--0--4--4------------|
A|--------------0-----------2--|--2--2--2------------|
E|--3--------------------------|--0--0--0------------|


************************************

| /   slide up
| \   slide down
| h   hammer-on
| p   pull-off
| ~   vibrato
| +   harmonic
| x   Mute note
| b   Bend
| pb  Pre-bend
| br  Bend release
| pbr Pre-bend release
| brb Bend release bend

************************************
1 comment total.
0 reply
ImKindaBusy wrote on April 25 2013, 02:20 am

Amazing work of art, the song itself and the tab. Great job.

I want to post or [tab]
guest
You may want to rate the tab now too:
select rating
Please do not post tabs as comments. Select "correction" instead!