Oops, an error
Loading. Please wait.

Periphery - Icarus Lives Tab

ver1
ver1

Whole song

Interactive

More versions @911Tabs.com
45,537 views 165 this week
no commentswrite comment
1 2 3 4 5
accurate
x 9
Autoscroll
+/-
esc
set tempo
stop
Contributor
Hey! There's an official Ultimate Guitar app which is ideal
for learning songs when you're away from computer. Get the app
WARNING: You are trying to view
                                    content from Ultimate-Guitar.com
                                    in an unauthorized application,
                                    which is prohibited.

                                    Please use an official Ultimate
                                    Guitar Tabs application for iPhone,
                                    iPad or Android to access legitimate
                                    chords, guitar, bass, and drum tabs
                                    from Ultimate-Guitar.com database.

                                    Type "ultimate guitar tabs" in Apple
                                    App Store's or Android Market's
                                    search to find the application.

            PM   PM           PM   PM PM  
       E.   S  S S  E.   E.   S  S S  S   
D#||-------------------------------------|
A#||-------------------------------------|
F#||-------------------------------------|
C#||--10b--------------------------------|
G#||-------------------------------------|
D#||--------5----5--8b---9b---5----5--5--|
G#||-------------------------------------|


              PM   PM   PM   PM PM PM          PM   PM           PM   PM PM  
  S E.   E.   S  S S  S S  S S  S  S      E.   S  S S  E.   E.   S  S S  S   
--------------------------------------|-------------------------------------|
--------------------------------------|-------------------------------------|
--------------------------------------|-------------------------------------|
---------------------------8----------|--10b--------------------------------|
--------------------------------------|-------------------------------------|
----8b---9b---5----5----5----5--5--5--|--------5----5--8b---9b---5----5--5--|
--------------------------------------|-------------------------------------|


              PM     PM                     PM                 PM  
  S E.   E.   S  S S S  S Q        E.   S S S  E.   E.   S S S S   
-------------------------------||---------------------------------|
-------------------------------||---------------------------------|
-------------------------------||---------------------------------|
-------------------------------||---------------------------------|
-------------------------------||---------------------------------|
----8b---9b---5--5---5--5------||--8b-----------------------------|
-------------------------------||-------0---0--3b---4b---0---x-0--|


                      PM   PM PM PM             PM                 PM  
  S E.   E.   S S S S S  S S  S  S     E.   S S S  E.   E.   S S S S   
------------------------------------|---------------------------------|
------------------------------------|---------------------------------|
------------------------------------|---------------------------------|
------------------------------------|---------------------------------|
------------------------------------|---------------------------------|
-------------------------6----------|--8b-----------------------------|
----3b---4b---0---0---0----0--0--0--|-------0---0--3b---4b---0---x-0--|


                      PM   PM PM PM                                       
  S E.   E.   S S S S S  S S  S  S       S S S S S S S S S S S S S S S S  
-------------------------------------||----------------------------------|
-------------------------------------||----------------------------------|
-------------------------------------||----------------------------------|
-------------------------------------||----------------------------------|
-------------------------------------||----------------------------------|
-------------------------5-----------||--5-5-5-5-5-5-5-5-5-5-5-5-5-5-5-5-|
----3b---4b---0---0---0----0--0--0---||----------------------------------|


  S S S S S S S S S S S S S S S S   
-----------------------------------|
-----------------------------------|
-----------------------------------|
-----------------------------------|
-----------------------------------|
--5-5-5-5-5-5-5-5-5-5-5-5-5-5-5-5S-|
-----------------------------------|


   S  S  S  S  S  S  S  S  S  S  S  S  S  S  S  S  
--------------------------------------------------|
--------------------------------------------------|
--------------------------------------------------|
--------------------------------------------------|
--------------------------------------------------|
--17-17-17-17-17-17-17-17-17-17-17-17-17-17-17-17-|
--------------------------------------------------|


   S  S  S  S  S  S  S  S  S  S  S  S  S  S  S  S  
--------------------------------------------------|
--------------------------------------------------|
--------------------------------------------------|
--------------------------------------------------|
--------------------------------------------------|
--17-17-17-17-17-17-17-17-17-17-17-17-17-17-17-17-|
--------------------------------------------------|


              PM PM                          PM PM   PM   PM PM            
  S S S S S S S  S  Q     S S S S    S S S S S  S  S S  S S  S  S S S S S  
----------------------------------|---------------------------------------|
----------------------------------|---------------------------------------|
----------------------------------|---------------------------------------|
----------------------------------|---------------------------------------|
----------------------------------|---------------------------------------|
--------------------5b------------|----------------5----7-------8-L-------|
--x-x-0---0---0--0--------0-----0-|------0---0--0----0----0--0------0-----|


        P.M.              P.M.          
  S S S S    S S E  S S S S    S S S S  
---------------------------------------|
---------------------------------------|
---------------------------------------|
---------------------------------------|
---------------------------------------|
---------------------------------------|
----0---x----0--------0---x----0-----0-|


            PM PM         PM PM   PM PM                PM PM                
  S S S S S S  S  S S S S S  S  S S  S     S S S S S S S  S  Q     S S S S  
----------------------------------------|----------------------------------|
----------------------------------------|----------------------------------|
----------------------------------------|----------------------------------|
----------------------------------------|----------------------------------|
----------------------------------------|----------------------------------|
----------------------7-7-------8-------|--------------------5b------------|
----x-x-0---0--0----------0--0----0--0--|--x-x-0---0---0--0--------0-----0-|


                                                P.M.              P.M.          
          PM PM   PM   PM PM                                                    
  S S S S S  S  S S  S S  S  S S S S S    S S S S    S S E  S S S S    S S S S  
---------------------------------------|---------------------------------------|
---------------------------------------|---------------------------------------|
---------------------------------------|---------------------------------------|
---------------------------------------|---------------------------------------|
---------------------------------------|---------------------------------------|
----------------5----7-------8-L-------|---------------------------------------|
------0---0--0----0----0--0------0-----|----0---x----0--------0---x----0-----0-|


            PM PM         PM PM   PM PM  
  S S S S S S  S  S S S S S  S  S S  S   
----------------------------------------|
----------------------------------------|
----------------------------------------|
----------------------------------------|
----------------------------------------|
----------------------7-7-------8-------|
----x-x-0---0--0----------0--0----0--0--|


  S  S  S S S S   S  S  S S S  S  S S  S S    S E.   E  S S S E  S S S S S  
-------------------------------------------|-------------------------------|
-------------------------------------------|-------------------------------|
-------------------------------------------|-------------------------------|
-------------------------------------------|-------------------------------|
-------10-----------12-----------10--------|------------8------------------|
-------------------------------------------|---------------------0-8-7-----|
--6S-8----8---8S-10----10---6S-8----8-10-8-|----8b---5----5---5--------0---|


      PM PM       PM PM       PM PM PM PM  
  E   S  S  S E   S  S  S E   S  S  S  S   
------------------------------------------|
------------------------------------------|
------------------------------------------|
------------------------------------------|
------------------------------------------|
------------------------------------------|
--1b--0--0----1b--0--0----1b--0--0--0--0--|


             PM PM       PM PM PM PM PM      PM         PM     PM   PM          
  S E.   E   S  S  S E   S  S  S  S  S     S S  S S S S S  S S S  S S  S S S S  
----------------------------------------|--------------------------------------|
----------------------------------------|--------------------------------------|
----------------------------------------|--------------------------------------|
----------------------------------------|--------------------------------------|
----------------------------------------|--------------------------------------|
----------------------------------------|--5----------6-----------5--------4-5-|
----1b---4b--4--4----4b--4--4--4--4--4--|----1--0---0---0--0---0----0--1-0-----|


  PM     PM   PM     PM   PM     PM PM    
  S  S S S  S S  S S S  S S  S S S  S  S  
-----------------------------------------|
-----------------------------------------|
-----------------------------------------|
-----------------------------------------|
-----------------------------------------|
------------6-----------5--------------4-|
--1--0---0----0--0---0----1--0---0--1----|


    PM         PM     PM   PM          
  S S  S S S S S  S S S  S S  S S S S  
--------------------------------------|
--------------------------------------|
--------------------------------------|
--------------------------------------|
--------------------------------------|
--5----------6-----------5--------4-5-|
----1--0---0---0--0---0----0--1-0-----|


  PM     PM   PM     PM   PM     PM PM    
  S  S S S  S S  S S S  S S  S S S  S  S  
-----------------------------------------|
-----------------------------------------|
-----------------------------------------|
-----------------------------------------|
-----------------------------------------|
------------6-----------5--------------4-|
--1--0---0----0--0---0----1--0---0--1----|


   S  S  S  E.   S  S  S  S  S  E.   S  S     S  E.   S  S  E  S E.  S E.   
------------------------------------------|--------------------------------|
------------------------------------------|--------------------------------|
------------------------------------------|--------------------------------|
------------------------------------------|--------------------------------|
--13-13-13------13-13-13-13---------13-13-|--13------13-13-13--------5-5---|
------------------------------------------|--------------------------------|
-----------10---------------10-10---------|-----10-------------5-5---------|


   S  S  S E.   S  S  S  S S E.   S  S     S E.   S  S  E  S E.  S E.   
---------------------------------------|-------------------------------|
---------------------------------------|-------------------------------|
---------------------------------------|-------------------------------|
---------------------------------------|-------------------------------|
--10-10-10-----10-10-10-10-------10-10-|--10-----10-10-10--------6-6---|
---------------------------------------|-------------------------------|
-----------6---------------6-6---------|-----6-------------3-3---------|


   S  S  S  E.   S  S  S  S  S  E.   S  S     S  E.   S  S  E  S E.  S E.   
------------------------------------------|--------------------------------|
------------------------------------------|--------------------------------|
------------------------------------------|--------------------------------|
------------------------------------------|--------------------------------|
--13-13-13------13-13-13-13---------13-13-|--13------13-13-13--------5-5---|
------------------------------------------|--------------------------------|
-----------10---------------10-10---------|-----10-------------5-5---------|


   S  S  S E.   S  S  S  S S E.   S  S     S E.   S  S  E  S E.  S E.   
---------------------------------------|-------------------------------|
---------------------------------------|-------------------------------|
---------------------------------------|-------------------------------|
---------------------------------------|-------------------------------|
--10-10-10-----10-10-10-10-------10-10-|--10-----10-10-10--------6-6---|
---------------------------------------|-------------------------------|
-----------6---------------6-6---------|-----6-------------3-3---------|


  S S S S S S S S S S S S S S S S    S S S S S S S S S S S S S S S S   
----------------------------------|-----------------------------------|
----------------------------------|-----------------------------------|
----------------------------------|-----------------------------------|
----------------------------------|-----------------------------------|
----------------------------------|-----------------------------------|
--5-5-5-5-5-5-5-5-5-5-5-5-5-5-5-5-|--5-5-5-5-5-5-5-5-5-5-5-5-5-5-5-5S-|
----------------------------------|-----------------------------------|


   S  S  S  S  S  S  S  S  S  S  S  S  S  S  S  S  
--------------------------------------------------|
--------------------------------------------------|
--------------------------------------------------|
--------------------------------------------------|
--------------------------------------------------|
--17-17-17-17-17-17-17-17-17-17-17-17-17-17-17-17-|
--------------------------------------------------|


   S  S  S  S  S  S  S  S  S  S  S  S  S  S  S  S  
--------------------------------------------------|
--------------------------------------------------|
--------------------------------------------------|
--------------------------------------------------|
--------------------------------------------------|
--17-17-17-17-17-17-17-17-17-17-17-17-17-17-17-17-|
--------------------------------------------------|


  S  S  S S S S   S  S  S S S  S  S S  S S    S E.   E  S S S E  S S S S S  
-------------------------------------------|-------------------------------|
-------------------------------------------|-------------------------------|
-------------------------------------------|-------------------------------|
-------------------------------------------|-------------------------------|
-------10-----------12-----------10--------|------------8------------------|
-------------------------------------------|---------------------0-8-7-----|
--6S-8----8---8S-10----10---6S-8----8-10-8-|----8b---5----5---5--------0---|


      PM PM       PM PM       PM PM PM PM PM PM  
                              |--3--|  |--3--|   
  E   S  S  S E   S  S  S E   S  S  S  S  S  S   
------------------------------------------------|
------------------------------------------------|
------------------------------------------------|
------------------------------------------------|
------------------------------------------------|
------------------------------------------------|
--1b--0--0----1b--0--0----1b--0--0--0--0--0--0--|


  PM            PM PM         PM PM      PM PM     PM PM                   
  E  S E.   E   S  S  S E   S S  S     S S  S  S S S  S  S S S S S S E.    
------------------------------------|-------------------------------------|
------------------------------------|-------------------------------------|
------------------------------------|-------------------------------------|
------------------------------------|-------------------------------------|
------------------------------------|-------------------------------------|
------------------------------------|--5-------5-L-------5-----------5b---|
--0----1b---4b--4--4----4b--4-4--4--|----0--0------0--0----0---0----------|


            PM PM         PM PM                         PM PM   PM PM     
  S S S S S S  S  S S S S S  S  E.      S E.  S S S S S S  S  S S  S  E   
-------------------------------------|-----------------------------------|
-------------------------------------|-----------------------------------|
-------------------------------------|-----------------------------------|
-------------------------------------|-----------------------------------|
-------------------------------------|-----------------------------------|
--------------------------------5b---|------------------------7-------8--|
--0-----0---0--0--0---0---0--0-------|--0-----0-----0---0--0----0--0-----|


  S S S S S S S S Q    S S S S    S S S S S S S S S S S S S E.    
-------------------------------|---------------------------------|
-------------------------------|---------------------------------|
-------------------------------|---------------------------------|
-------------------------------|---------------------------------|
-------------------------------|---------------------------------|
-------------------------------|--------5-L-----5-----------5b---|
--0-------0---x-0------0---x-0-|----0-0-----0-0---0---0----------|


            PM PM         PM PM                         PM PM   PM PM     
  S S S S S S  S  S S S S S  S  E.      S E.  S S S S S S  S  S S  S  E   
-------------------------------------|-----------------------------------|
-------------------------------------|-----------------------------------|
-------------------------------------|-----------------------------------|
-------------------------------------|-----------------------------------|
-------------------------------------|-----------------------------------|
--------------------------------5b---|------------------------7-------8--|
--0-----0---0--0--0---0---0--0-------|--0-----0-----0---0--0----0--0-----|


                                    PM         PM     PM   PM          
  S S S S S S S S Q    S S S S    S S  S S S S S  S S S  S S  S S S S  
-------------------------------|--------------------------------------|
-------------------------------|--------------------------------------|
-------------------------------|--------------------------------------|
-------------------------------|--------------------------------------|
-------------------------------|--------------------------------------|
-------------------------------|--5----------6-----------5--------4-5-|
--0-------0---x-0------0---x-0-|----1--0---0---0--0---0----0--1-0-----|


  PM     PM   PM     PM   PM     PM PM    
  S  S S S  S S  S S S  S S  S S S  S  S  
-----------------------------------------|
-----------------------------------------|
-----------------------------------------|
-----------------------------------------|
-----------------------------------------|
------------6-----------5--------------4-|
--1--0---0----0--0---0----1--0---0--1----|


   S  S  S  E.   S  S  S  S  S  E.   S  S     S  E.   S  S  E  S E.  S E.   
------------------------------------------|--------------------------------|
------------------------------------------|--------------------------------|
------------------------------------------|--------------------------------|
------------------------------------------|--------------------------------|
--13-13-13------13-13-13-13---------13-13-|--13------13-13-13--------5-5---|
------------------------------------------|--------------------------------|
-----------10---------------10-10---------|-----10-------------5-5---------|


   S  S  S E.   S  S  S  S S E.   S  S     S E.   S  S  E  S E.  S E.   
---------------------------------------|-------------------------------|
---------------------------------------|-------------------------------|
---------------------------------------|-------------------------------|
---------------------------------------|-------------------------------|
--10-10-10-----10-10-10-10-------10-10-|--10-----10-10-10--------6-6---|
---------------------------------------|-------------------------------|
-----------6---------------6-6---------|-----6-------------3-3---------|


   S  S  S  E.   S  S  S  S  S  E.   S  S     S  E.   S  S  E  S E.  S E.   
------------------------------------------|--------------------------------|
------------------------------------------|--------------------------------|
------------------------------------------|--------------------------------|
------------------------------------------|--------------------------------|
--13-13-13------13-13-13-13---------13-13-|--13------13-13-13--------5-5---|
------------------------------------------|--------------------------------|
-----------10---------------10-10---------|-----10-------------5-5---------|


   S  S  S E.   S  S  S  S S E.   S  S     S E.   S  S  E  S E.  S E.          
---------------------------------------|-------------------------------|------|
---------------------------------------|-------------------------------|------|
---------------------------------------|-------------------------------|------|
---------------------------------------|-------------------------------|------|
--10-10-10-----10-10-10-10-------10-10-|--10-----10-10-10--------6-6---|------|
---------------------------------------|-------------------------------|------|
-----------6---------------6-6---------|-----6-------------3-3---------|------|


  S  S  S S S S   S  S  S S S  S  S S  S S    S E.   E  S S S E  S S S S S  
-------------------------------------------|-------------------------------|
-------------------------------------------|-------------------------------|
-------------------------------------------|-------------------------------|
-------------------------------------------|-------------------------------|
-------10-----------12-----------10--------|------------8------------------|
-------------------------------------------|---------------------0-8-7-----|
--6S-8----8---8S-10----10---6S-8----8-10-8-|----8b---5----5---5--------0---|


           PM                 PM                        PM   PM PM PM  
  E.   S S S  E.   E.   S S S S     S E.   E.   S S S S S  S S  S  S   
---------------------------------|------------------------------------|
---------------------------------|------------------------------------|
---------------------------------|------------------------------------|
---------------------------------|------------------------------------|
---------------------------------|------------------------------------|
--8b-----------------------------|-------------------------6----------|
-------0---0--3b---4b---0---x-0--|----3b---4b---0---0---0----0--0--0--|


      PM PM       PM PM       PM PM PM PM  
  E   S  S  S E   S  S  S E   S  S  S  S   
------------------------------------------|
------------------------------------------|
------------------------------------------|
------------------------------------------|
------------------------------------------|
------------------------------------------|
--1b--0--0----1b--0--0----1b--0--0--0--0--|


             PM PM       PM PM PM PM PM             PM                 PM  
  S E.   E   S  S  S E   S  S  S  S  S     E.   S S S  E.   E.   S S S S   
----------------------------------------|---------------------------------|
----------------------------------------|---------------------------------|
----------------------------------------|---------------------------------|
----------------------------------------|---------------------------------|
----------------------------------------|---------------------------------|
----------------------------------------|--8b-----------------------------|
----1b---4b--4--4----4b--4--4--4--4--4--|-------0---0--3b---4b---0---x-0--|


                      PM   PM PM PM      PM         PM     PM   PM          
  S E.   E.   S S S S S  S S  S  S     S S  S S S S S  S S S  S S  S S S S  
------------------------------------|--------------------------------------|
------------------------------------|--------------------------------------|
------------------------------------|--------------------------------------|
------------------------------------|--------------------------------------|
------------------------------------|--------------------------------------|
-------------------------6----------|--5----------6-----------5--------4-5-|
----3b---4b---0---0---0----0--0--0--|----1--0---0---0--0---0----0--1-0-----|


  PM     PM   PM     PM   PM     PM PM    
  S  S S S  S S  S S S  S S  S S S  S  S  
-----------------------------------------|
-----------------------------------------|
-----------------------------------------|
-----------------------------------------|
-----------------------------------------|
------------6-----------5--------------4-|
--1--0---0----0--0---0----1--0---0--1----|


    PM         PM     PM   PM          
  S S  S S S S S  S S S  S S  S S S S  
--------------------------------------|
--------------------------------------|
--------------------------------------|
--------------------------------------|
--------------------------------------|
--5----------6-----------5--------4-5-|
----1--0---0---0--0---0----0--1-0-----|


  PM     PM   PM     PM   PM     PM PM    
  S  S S S  S S  S S S  S S  S S S  S  S  
-----------------------------------------|
-----------------------------------------|
-----------------------------------------|
-----------------------------------------|
-----------------------------------------|
------------6-----------5--------------4-|
--1--0---0----0--0---0----1--0---0--1----|


    PM         PM     PM   PM          
  S S  S S S S S  S S S  S S  S S S S  
--------------------------------------|
--------------------------------------|
--------------------------------------|
--------------------------------------|
--------------------------------------|
--5----------6-----------5--------4-5-|
----1--0---0---0--0---0----0--1-0-----|


  PM     PM   PM     PM   PM     PM PM    
  S  S S S  S S  S S S  S S  S S S  S  S  
-----------------------------------------|
-----------------------------------------|
-----------------------------------------|
-----------------------------------------|
-----------------------------------------|
------------6-----------5--------------4-|
--1--0---0----0--0---0----1--0---0--1----|


    PM         PM     PM   PM          
  S S  S S S S S  S S S  S S  S S S S  
--------------------------------------|
--------------------------------------|
--------------------------------------|
--------------------------------------|
--------------------------------------|
--5----------6-----------5--------4-5-|
----1--0---0---0--0---0----0--1-0-----|


  PM     PM   PM     PM   PM     PM PM               PM                 PM  
  S  S S S  S S  S S S  S S  S S S  S  S    E.   S S S  E.   E.   S S S S   
-----------------------------------------|---------------------------------|
-----------------------------------------|---------------------------------|
-----------------------------------------|---------------------------------|
-----------------------------------------|---------------------------------|
-----------------------------------------|---------------------------------|
------------6-----------5--------------4-|--8b-----------------------------|
--1--0---0----0--0---0----1--0---0--1----|-------0---0--3b---4b---0---x-0--|


                      PM   PM PM PM             PM                 PM  
  S E.   E.   S S S S S  S S  S  S     E.   S S S  E.   E.   S S S S   
------------------------------------|---------------------------------|
------------------------------------|---------------------------------|
------------------------------------|---------------------------------|
------------------------------------|---------------------------------|
------------------------------------|---------------------------------|
-------------------------6----------|--8b-----------------------------|
----3b---4b---0---0---0----0--0--0--|-------0---0--3b---4b---0---x-0--|


                      PM   PM PM PM        
  S E.   E.   S S S S S  S S  S  S         
------------------------------------|----||
------------------------------------|----||
------------------------------------|----||
------------------------------------|----||
------------------------------------|----||
-------------------------5----------|----||
----3b---4b---0---0---0----0--0--0--|----||




Duration Legend
---------------
W - whole
H - half
Q - quarter
E - 8th
S - 16th
T - 32nd
X - 64th
. - note dotted
|-n-|  - n-tuplets


Tablature Legend
----------------
L - tied note
x - dead note
g - grace note
(n) - ghost note
> - accentuded note
NH - natural harmonic
AH - artificial harmonic
TH - tapped harmonic
SH - semi harmonic
PH - pitch harmonic
h - hammer on
p - pull off
b - bend
br - bendRelease
pb - preBend
pbr - preBendRelease
brb - bendReleaseBend
\n/ - tremolo bar dip
\n - tremolo bar dive
-/n - tremolo bar Release up
/n\ - tremolo bar inverted dip
/n - tremolo bar return
-\n - tremolo bar Release down
S - shift slide
s - legato slide
/ -  slide into from below or out of upwards
\ -  slide into from above or out of downwards
~ - vibrato
W - wide vibrato
tr - trill
TP - tremolo picking
T - tapping
S - slap
P - pop
< - fade in
^ - brush up
v - brush down
comments
print report bad tab
I want to post or [tab]
guest
You may want to rate the tab now too:
select rating
Please do not post tabs as comments. Select "correction" instead!