Oops, an error
Loading. Please wait.

Sangre Azul - Mil Y Una Noches Tab

2,848 views 15 this week
no commentswrite comment
1 2 3 4 5
please rate
Autoscroll
+/-
esc
set tempo
stop
Contributor
Difficulty
intermediate
NEW! There's an official Ultimate Guitar app which is ideal
for learning songs when you're away from computer. Get the app
WARNING: You are trying to view
                                    content from Ultimate-Guitar.com
                                    in an unauthorized application,
                                    which is prohibited.

                                    Please use an official Ultimate
                                    Guitar Tabs application for iPhone,
                                    iPad or Android to access legitimate
                                    chords, guitar, bass, and drum tabs
                                    from Ultimate-Guitar.com database.

                                    Type "ultimate guitar tabs" in Apple
                                    App Store's or Android Market's
                                    search to find the application.
                         "Mil Y una noches"
                                by
                            Sangre Azul

Bad ass Spanish Metal Song.


gtr1
-----------------------------------------------------------------------|
-----------------------------------------------------------------------|
----9---8-9---8-9---9-----9-----9---9---8-9---8-9---9---9-9-8-9-9-(8)--|
------9-----9-----9---9-7---9-7---9---9-----9-----9-----9-9-9-9-9-(9)--|
-----------------------------------------------------------------------|
-----------------------------------------------------------------------|
 p.m.------------------------------------------------------------------|           let ring

repeat 2x
--------------------------------------------------------------------------------|
-----5-----(5)--------2-----(2)--------5-----(4)--------5-----(4)-----5-5-4-(4)-|
-----6-----(6)--------2-----(2)--------4-----(4)--------4-----(4)-----4-4-4-(4)-|
--6--6-6-6-(6)-----2--2-2-2-(2)-----4--4-4-4-(4)-----4--4-4-4-(4)---------------|
--4--4-4-4-(4)-----0--0-0-0-(0)-----2--2-2-2-(2)-----2--2-2-2-(2)---------------|
--------------------------------------------------------------------------------|
 p.m.  ---         -    ---         -    ---         -    ---        let ring

verse 1
-----------------------------------------------------------------------------|
-----2-----2-------------5-4-4-(4)--------5-----5------------5-4-4-(4)-------|
-----2-----2-------------4-4-4-(4)--------6-----6------------4-4-4-(4)-------|
--2--2-----2---------------------------6--6-----6----------------------------|
--0--0-0-0-0--0-0-0-0-0----------------4--4-4-4-4-4-4-4-4-4------------------|
-----------------------------------------------------------------------------|
p.m.   ---   ---------                -    ---   ---------


----------------------------------------------------------------------------|
-----2-----2-------------5-4-4-(4)--------5-----5-------5---4-4-------------|
-----2-----2-------------4-4-4-(4)--------6-----6-------4---4-4--4--6-6-----|
--2--2-----2---------------------------6--6-----6----------------4--6-6-----|
--0--0-0-0-0--0-0-0-0-0----------------4--4-4-4-4-4-4-4---4-----------------|
----------------------------------------------------------------------------|
p.m.   ---   ---------                -    ---   -----   -


---------------------------------------------------------------------------|
-----2-----2------5----4------4-4--------5-----5------5--------------------|
-----2-----2------4----4------4-4--------6-----6------4------6-6-----------|
--2--2-----2--------------------------6--6-----6-------------6-6-----------|
--0--0-0-0-0--0-0---0-0---0-0---------4--4-4-4-4-4-4----4-4----------------|
---------------------------------------------------------------------------|
p.m.   ---   ---------                -    ---   ---    ---


clean gutiar             distorted guitar
------0-------0-----------------------------------------------------------------|
--2---2---2---2-----------------------------------------------------------------|
--2---2---2---2-----------------------------------------9----8-9-----8-9--------|
--2---2---2---2--------------------------------------------9------9------9------|
--0-------0------------------9--9--9--9--9--9--9--9-----------------------------|
-----------------------------7--7--7--7--7--7--7--7-----------------------------|
let ring-------             p.m.------------------------------------------------|


chorus
-----------------------------------------------------------------------|
-----5-----(5)--------2-----(2)--------5-----(4)--------5-----(4)------|
-----6-----(6)--------2-----(2)--------4-----(4)--------4-----(4)------|
--6--6-6-6-(6)-----2--2-2-2-(2)-----4--4-4-4-(4)-----4--4-4-4-(4)------|
--4--4-4-4-(4)-----0--0-0-0-(0)-----2--2-2-2-(2)-----2--2-2-2-(2)------|
-----------------------------------------------------------------------|
 p.m.  ---         -    ---         -    ---         -    ---


end chorus.
---------------------------------------------------------------------------|
-----5-----(5)--------2-----(2)--------5-----(4)---5-5-4-(4)---------------|
-----6-----(6)--------2-----(2)--------4-----(4)---4-4-4-(4)---------------|
--6--6-6-6-(6)-----2--2-2-2-(2)-----4--4-4-4-(4)---------------------------|
--4--4-4-4-(4)-----0--0-0-0-(0)-----2--2-2-2-(2)---------------------------|
---------------------------------------------------------------------------|
 p.m.  ---         -    ---         -    ---

verse 1
-----------------------------------------------------------------------------|
-----2-----2-------------5-4-4-(4)--------5-----5------------5-4-4-(4)-------|
-----2-----2-------------4-4-4-(4)--------6-----6------------4-4-4-(4)-------|
--2--2-----2---------------------------6--6-----6----------------------------|
--0--0-0-0-0--0-0-0-0-0----------------4--4-4-4-4-4-4-4-4-4------------------|
-----------------------------------------------------------------------------|
p.m.   ---   ---------                -    ---   ---------

----------------------------------------------------------------------------|
-----2-----2-------------5-4-4-(4)--------5-----5-------5---4-4-------------|
-----2-----2-------------4-4-4-(4)--------6-----6-------4---4-4--4--6-6-----|
--2--2-----2---------------------------6--6-----6----------------4--6-6-----|
--0--0-0-0-0--0-0-0-0-0----------------4--4-4-4-4-4-4-4---4-----------------|
----------------------------------------------------------------------------|
p.m.   ---   ---------                -    ---   -----   -

---------------------------------------------------------------------------|
-----2-----2------5----4------4-4--------5-----5------5--------------------|
-----2-----2------4----4------4-4--------6-----6------4------6-6-----------|
--2--2-----2--------------------------6--6-----6-------------6-6-----------|
--0--0-0-0-0--0-0---0-0---0-0---------4--4-4-4-4-4-4----4-4----------------|
---------------------------------------------------------------------------|
p.m.   ---   ---------                -    ---   ---    ---


clean gutiar             distorted guitar
------0-------0------------------------------------------------------------|
--2---2---2---2------------------------------------------------------------|
--2---2---2---2-----------------------------------------9----8-9-----8-9---|
--2---2---2---2--------------------------------------------9------9------9-|
--0-------0------------------9--9--9--9--9--9--9--9------------------------|
-----------------------------7--7--7--7--7--7--7--7------------------------|
let ring-------             p.m.-------------------------------------------|


chorus 2
----------------------------------------------------------------------|
-----5-----(5)--------2-----(2)--------5-----(4)--------5-----(4)-----|
-----6-----(6)--------2-----(2)--------4-----(4)--------4-----(4)-----|
--6--6-6-6-(6)-----2--2-2-2-(2)-----4--4-4-4-(4)-----4--4-4-4-(4)-----|
--4--4-4-4-(4)-----0--0-0-0-(0)-----2--2-2-2-(2)-----2--2-2-2-(2)-----|
----------------------------------------------------------------------|
 p.m.  ---         -    ---         -    ---         -    ---

----------------------------------------------------------------------|
-----5-----(5)--------2-----(2)--------5-----(4)--------5-----(4)-----|
-----6-----(6)--------2-----(2)--------4-----(4)--------4-----(4)-----|
--6--6-6-6-(6)-----2--2-2-2-(2)-----4--4-4-4-(4)-----4--4-4-4-(4)-----|
--4--4-4-4-(4)-----0--0-0-0-(0)-----2--2-2-2-(2)-----2--2-2-2-(2)-----|
----------------------------------------------------------------------|
 p.m.  ---         -    ---         -    ---         -    ---

----------------------------------------------------------------------|
-----5-----(5)--------2-----(2)--------5-----(4)--------5-----(4)-----|
-----6-----(6)--------2-----(2)--------4-----(4)--------4-----(4)-----|
--6--6-6-6-(6)-----2--2-2-2-(2)-----4--4-4-4-(4)-----4--4-4-4-(4)-----|
--4--4-4-4-(4)-----0--0-0-0-(0)-----2--2-2-2-(2)-----2--2-2-2-(2)-----|
----------------------------------------------------------------------|
 p.m.  ---         -    ---         -    ---         -    ---

-------------------------------------------------------------------|
-----5-----(5)--------2-----(2)--------5-----(4)-------------------|
-----6-----(6)--------2-----(2)--------4-----(4)-------------------|
--6--6-6-6-(6)-----2--2-2-2-(2)-----4--4-4-4-(4)-------------------|
--4--4-4-4-(4)-----0--0-0-0-(0)-----2--2-2-2-(2)-------------------|
-------------------------------------------------------------------|
 p.m.  ---         -    ---         -    ---

solo:
--------------------------------------------------------------------------|
------------------------------10-9-10\9--10-------------------------------|
-9\----9-8-9-9---11-9-11-11---9--9--9\8---9--11-11---9-8-9-9--------------|
-9\----9-9-9-9----9-9--9--9-------------------9--9---9-9-9-9--------------|
-9\-----------------------------------------------------------------------|
--------------------------------------------------------------------------|

---------------------------------------------------------------------------|
---------------------------------------------------------------------------|
----9------9----11---[11b1]-----9------11-----13-------------------6~~-----|
-9-----9------9----9---------9-----9-------9------9--9~~~----9-7-9---------|
---------------------------------------------------------------------------|
---------------------------------------------------------------------------|
 p.m.---------------harmonic ----------------------------------------------|

---------------------------------------------------------------------------|
----------------------------------------------------9-10-------------------|
-6h8p6-8b1-6-[8]---------------6-----8-----9-----8--------9----------------|
----------------------------6-----6-----6-----6----------------------------|
--------------------11-11--------------------------------------------------|
---------------------------------------------------------------------------|
          Harmonic  p.m.---------------------------------------------------|

----------------------9h12p9--11b1--12--16--12~~~-----------16-19-16-------|
---------------------------------------------------------17----------17----|
-11b1-9-11---[9]-9------------------------------------16----------------16-|
---------------------------------------------------------------------------|
---------------------------------------------------------------------------|
---------------------------------------------------------------------------|
             A.H.

---------------------------------------------------------------------------|
-17b1-17b1-----------------------------------------------------------------|
--------------14b1--16-16p14----13-14----13-11-----------------------------|
-----------------------------16-------16-------13-11-13-14-11-13/-9-11-----|
---------------------------------------------------------------------------|
---------------------------------------------------------------------------|

----------------------------------12h14h16p14p12----------------------------|
-------------------------12h14h16----------------16p14p12p14-17--16b1-14-16-|
-8h9h11-9h11h13-11h13h14----------------------------------------------------|
----------------------------------------------------------------------------|
----------------------------------------------------------------------------|
----------------------------------------------------------------------------|

---------------------------------------------------------------------------|
-17----12--------------------12b1-12b1-12p9-12p9------9------9-------------|
-------------4b1-4b1-4b1-4b1---------------------11------11-----11-9-------|
---------------------------------------------------------------------------|
---------------------------------------------------------------------------|
---------------------------------------------------------------------------|
                                                p.m.-----------------------|
end solo
----------------------------------------------------------------------------|
----------------------------------------------------------------------------|
-9-8------9-8------9-8------------------------------------------------------|
------9--------9--------9---------------------------------------------------|
----------------------------------------------------------------------------|
----------------------------------------------------------------------------|
p.m.------------------------------------------------------------------------|

---------------------------------------------------------------------------|
-----6-----6--------3-----3--------6-----5--------6-----5------------------|
-----7-----7--------3-----3--------5-----5--------5-----5------------------|
--7--7-7-7-7-----3--3-3-3-3-----5--5-5-5-5-----5--5-5-5-5------------------|
--5--5-5-5-5-----1--1-1-1-1-----3--3-3-3-3-----3--3-3-3-3------------------|
---------------------------------------------------------------------------|
 p.m.  ---       -    --        -    --        -    --

---------------------------------------------------------------------------|
-----6-----6--------3-----3--------6-----5--------6-----5------------------|
-----7-----7--------3-----3--------5-----5--------5-----5------------------|
--7--7-7-7-7-----3--3-3-3-3-----5--5-5-5-5-----5--5-5-5-5------------------|
--5--5-5-5-5-----1--1-1-1-1-----3--3-3-3-3-----3--3-3-3-3------------------|
---------------------------------------------------------------------------|
 p.m.  ---       -    --        -    --        -    --

---------------------------------------------------------------------------|
-----6-----6--------3-----3--------6-----5--------6-----5------------------|
-----7-----7--------3-----3--------5-----5--------5-----5------------------|
--7--7-7-7-7-----3--3-3-3-3-----5--5-5-5-5-----5--5-5-5-5------------------|
--5--5-5-5-5-----1--1-1-1-1-----3--3-3-3-3-----3--3-3-3-3------------------|
---------------------------------------------------------------------------|
 p.m.  ---       -    --        -    --        -    --

---------------------------------------------------------------------------|
-----6-----6--------3-----3--------6-----5--------6-----5------------------|
-----7-----7--------3-----3--------5-----5--------5-----5------------------|
--7--7-7-7-7-----3--3-3-3-3-----5--5-5-5-5-----5--5-5-5-5------------------|
--5--5-5-5-5-----1--1-1-1-1-----3--3-3-3-3-----3--3-3-3-3------------------|
---------------------------------------------------------------------------|
 p.m.  ---       -    --        -    --        -    --

---------------------------------------------------------------------------|
-----6-----6--------3-----3--------6-----5--------6-----5------------------|
-----7-----7--------3-----3--------5-----5--------5-----5------------------|
--7--7-7-7-7-----3--3-3-3-3-----5--5-5-5-5-----5--5-5-5-5------------------|
--5--5-5-5-5-----1--1-1-1-1-----3--3-3-3-3-----3--3-3-3-3------------------|
---------------------------------------------------------------------------|
 p.m.  ---       -    --        -    --        -    --

---------------------------------------------------------------------------|
-----6-----6--------3-----3--------6-----5--------6-----5------------------|
-----7-----7--------3-----3--------5-----5--------5-----5------------------|
--7--7-7-7-7-----3--3-3-3-3-----5--5-5-5-5-----5--5-5-5-5------------------|
--5--5-5-5-5-----1--1-1-1-1-----3--3-3-3-3-----3--3-3-3-3------------------|
---------------------------------------------------------------------------|
 p.m.  ---       -    --        -    --        -    --

---------------------------------------------------------------------------|
------------------------------------11-10-11\10--11------------------------|
--10-10-9--10-10---12-10-12-12-12---10-10-10\-9--10--12-12-----------------|
--10-10-10-10-10---10-10-10-10-10--------------------10-10-----------------|
---------------------------------------------------------------------------|
---------------------------------------------------------------------------|

---------------------------------------------------------------------------|
------------------------------------11-10-11\10--11------------------------|
--10-10-9--10-10---12-10-12-12-12---10-10-10\-9--10--12-12-----------------|
--10-10-10-10-10---10-10-10-10-10--------------------10-10-----------------|
---------------------------------------------------------------------------|
---------------------------------------------------------------------------|

---------------------------------------------------------------------------|
------------------------------------11-10-11\10--11------------------------|
--10-10-9--10-10---12-10-12-12-12---10-10-10\-9--10--12-12-----------------|
--10-10-10-10-10---10-10-10-10-10--------------------10-10-----------------|
---------------------------------------------------------------------------|
---------------------------------------------------------------------------|

---------------------------------------------------------------------------|
------------------------------------11-10-11\10--11------------------------|
--10-10-9--10-10---12-10-12-12-12---10-10-10\-9--10--12-12-----------------|
--10-10-10-10-10---10-10-10-10-10--------------------10-10-----------------|
---------------------------------------------------------------------------|
---------------------------------------------------------------------------|

thats the whole song enjoy.
comments
We did not receive enough feedback on this tab! Please rate:
print report bad tab
1 2 3 4 5
I want to post or [tab]
guest
You may want to rate the tab now too:
select rating
Please do not post tabs as comments. Select "correction" instead!