Oops, an error
Loading. Please wait.

Shoulder - The Old School Falling Tab

9 views 1 this week
no commentswrite comment
1 2 3 4 5
please rate
Autoscroll
+/-
esc
set tempo
stop
Contributor
Difficulty
intermediate
WARNING: You are trying to view
                                    content from Ultimate-Guitar.com
                                    in an unauthorized application,
                                    which is prohibited.

                                    Please use an official Ultimate
                                    Guitar Tabs application for iPhone,
                                    iPad or Android to access legitimate
                                    chords, guitar, bass, and drum tabs
                                    from Ultimate-Guitar.com database.

                                    Type "ultimate guitar tabs" in Apple
                                    App Store's or Android Market's
                                    search to find the application.
SHOULDER - THE OLD SCHOOL FALLING

e|-------------------------3-----|
b|----------8-----------------3--|
G|-------11---11-----------------|
D|-----9---------9-----0---------|
A|---7-------------7-------------|
E|-0-----------------3---3-------|

e|-----------------------------------|
b|----------8------------------------|
G|-------11---11---------------------|
D|-----9---------9-------0-------0---|
A|---7-------------7---2---2---4---4-|
E|-0-----------------3-------5-------|

x4

e|---------|
b|---------|
G|---------|
D|-5-4-----|
A|-----3-2-|
E|---------|

e|-------------------------3-----|
b|----------8-----------------3--|
G|-------11---11-----------------|
D|-----9---------9-----0---------|
A|---7-------------7-------------|
E|-0-----------------3---3-------|

e|-----------------------------------|
b|----------8------------------------|
G|-------11---11---------------------|
D|-----9---------9-------0-------0---|
A|---7-------------7---2---2---4---4-|
E|-0-----------------3-------5-------|

x2

    e|-------------------------------------0-------0----|
    b|-8-----8-----8---7-----7-----7-------0-------3----|
GTR G|---------------------------------5-5-5---4-4-2----|
 1  D|---9-----9-----9---9-----9-----9-5-5-5---4-4-0----| 1,2,4
    A|-----7-----7---------7-----7-----3-3-3---2-2------|
    E|--------------------------------------------------|

    e|--------------------------------------0-------0----|
    b|--------------------------------------0-------3----|
GTR G|-9-9-9-9-9-9-9-9-9\-7-7-7-7-7-7-7-5-5-5---4-4-2----|
 2  D|----------------------------------5-5-5---4-4-0----| 1,2,4
    A|-7-7-7-7-7-7-7-7-7\-5-5-5-5-5-5-5-3-3-3---2-2------|
    E|---------------------------------------------------|

    e|-------------------------------------0-------0----|
    b|-8-----8-----8---7-----7-----7-------0-------3----|
GTR G|---------------------------------5-5-5---4-4-2----|
 1  D|---9-----9-----9---9-----9-----9-5-5-5---4-4-0----| 3
    A|-----7-----7---------7-----7-----3-3-3---2-2------|
    E|--------------------------------------------------|

    e|--------------------------------------------0-----0-|
    b|--------------------------------------------0-----3-|
GTR G|-9-9-9-9-9-9-9-9-9\-11-11-11-12-12-12-7-5-5-5-4-4-2-|
 2  D|----------------------------------------5-5-5-4-4-0-| 3
    A|-7-7-7-7-7-7-7-7-7\-9--9--9--10-10-10---3-3-3-2-2---|
    E|----------------------------------------------------|

e|-------------------------3-----|
b|----------8-----------------3--|
G|-------11---11-----------------|
D|-----9---------9-----0---------|
A|---7-------------7-------------|
E|-0-----------------3---3-------|

e|-----------------------------------|
b|----------8------------------------|
G|-------11---11---------------------|
D|-----9---------9-------0-------0---|
A|---7-------------7---2---2---4---4-|
E|-0-----------------3-------5-------|

x4

    e|-------------------------------------0-------0----|
    b|-8-----8-----8---7-----7-----7-------0-------3----|
GTR G|---------------------------------5-5-5---4-4-2----|
 1  D|---9-----9-----9---9-----9-----9-5-5-5---4-4-0----| 1,2,4
    A|-----7-----7---------7-----7-----3-3-3---2-2------|
    E|--------------------------------------------------|

    e|--------------------------------------0-------0----|
    b|--------------------------------------0-------3----|
GTR G|-9-9-9-9-9-9-9-9-9\-7-7-7-7-7-7-7-5-5-5---4-4-2----|
 2  D|----------------------------------5-5-5---4-4-0----| 1,2,4
    A|-7-7-7-7-7-7-7-7-7\-5-5-5-5-5-5-5-3-3-3---2-2------|
    E|---------------------------------------------------|

    e|-------------------------------------0-------0----|
    b|-8-----8-----8---7-----7-----7-------0-------3----|
GTR G|---------------------------------5-5-5---4-4-2----|
 1  D|---9-----9-----9---9-----9-----9-5-5-5---4-4-0----| 3
    A|-----7-----7---------7-----7-----3-3-3---2-2------|
    E|--------------------------------------------------|

    e|--------------------------------------------0-----0-|
    b|--------------------------------------------0-----3-|
GTR G|-9-9-9-9-9-9-9-9-9\-11-11-11-12-12-12-7-5-5-5-4-4-2-|
 2  D|----------------------------------------5-5-5-4-4-0-| 3
    A|-7-7-7-7-7-7-7-7-7\-9--9--9--10-10-10---3-3-3-2-2---|
    E|----------------------------------------------------|

    e|-------------------------------------0--------|
    b|-8-----8-----8---7-----7-----7-------0--------|
GTR G|---------------------------------5-5-5---4-4--|
 1  D|---9-----9-----9---9-----9-----9-5-5-5---4-4--|
    A|-----7-----7---------7-----7-----3-3-3---2-2--|
    E|----------------------------------------------|

    e|--------------------------------------0-------|
    b|--------------------------------------0-------|
GTR G|-9-9-9-9-9-9-9-9-9\-7-7-7-7-7-7-7-5-5-5---4-4-|
 2  D|----------------------------------5-5-5---4-4-|
    A|-7-7-7-7-7-7-7-7-7\-5-5-5-5-5-5-5-3-3-3---2-2-|
    E|----------------------------------------------|

    e|-------------------------------------|
    b|-------------------------------------|
GTR G|-------------------------------------|
 1  D|-------5-------5----------9--------5-|
    A|-7-7-7-7-9-9-9-9-10-10-10-10-9-9-9-9-|
    E|-------------------------------------|
       P MPM   P MPM   PM PM PM    P MPM 

    e|------------------------------------------------|
    b|------------------------------------------------|
GTR G|-------9p7-------11p9----------11h12-------11p9-|
 2  D|------------------------------------------------|
    A|-7-7-7-----9-9-9------10-10-10-------9-9-9------|
    E|------------------------------------------------|

x4

e|---------------------------------|
b|---------------------------------|
G|---------------------0-----------|
D|-2-2-2-----5---4---2---2---------|
A|-2-2-2---7---5---3---------2---0-|
E|-0-0-0-------------------3---2---|

x4

e|----------------------------------------------|
b|----------------------------------------------|
G|--------------------------------------5-5-5/7-|
D|-2-2-2----4-5-5-5----2-2-2----4-5-5-5---------|
A|-2-2-2----5-5-5-5----2-2-2----5-5-5-5-3-3-3/5-|
E|-0-0-0----2-3-3-3----0-0-0----2-3-3-3---------|

x2

e|----------------------|-----1,3-----|--2,4----|
b|----------------------|-------------|---------|
G|----------------------|-------0-----|-5-5-5/7-|
D|-2-2-222-4-4-4-5-5-55-|-----4---4---|---------|
A|-2-2-222-5-5-5-5-5-55-|-3/5-------5-|-3-3-3/5-|
E|-0-0-000-2-2-2-3-3-33-|-------------|---------|

e|-------------------------------------|
b|-------------------------------------|
G|-------9-------7-------5-----0-----0-|
D|-------9-------7-------5-3/5---5\3---|
A|-2-2-2-7-5-5-5-5-5-5-5-3-------------|
E|-0-0-0---2-2-2---3-3-3---------------|
   P MPM   P MPM   P MPM

x4

    e|-------------------------------------|
    b|-------------------------------------|
GTR G|-------9-------7-------5-----0-----0-|
 1  D|-------9-------7-------5-3/5---5\3---|
    A|-2-2-2-7-5-5-5-5-5-5-5-3-------------|
    E|-0-0-0---2-2-2---3-3-3---------------|
       P MPM   P MPM   P MPM

    e|----------------------------------------------------|
    b|----------------------------------------------------|
GTR G|-1212121212-12-12-1414141414-14-14-1212121212-12-12-|
 2  D|----------------------------------------------------|
    A|-1010101010-10-10-1212121212-12-12-1010101010-10-10-|
    E|----------------------------------------------------|

x4

    e|----------------------------------------------------|
    b|----------------------------------------------------|
GTR G|-1212121212-12-12-1414141414-14-14-1212121212-12-12-|
 2  D|----------------------------------------------------|
    A|-1010101010-10-10-1212121212-12-12-1010101010-10-10-|
    E|----------------------------------------------------|

    e|-------------------------------------|
    b|-------------------------------------|
GTR G|-------9-------7-------5-----0-----0-|
 1  D|-------9-------7-------5-3/5---5\3---|
    A|-2-2-2-7-5-5-5-5-5-5-5-3-------------|
    E|-0-0-0---2-2-2---3-3-3---------------|
       P MPM   P MPM   P MPM

    e|----------------------------------------------------|
    b|----------------------------------------------------|
GTR G|-1212121212-12-12-1414141414-14-14-1212121212-12-12-|
 2  D|----------------------------------------------------|
    A|-1010101010-10-10-1212121212-12-12-1010101010-10-10-|
    E|----------------------------------------------------|

x4

e|-------------------------------------|
b|-------------------------------------|
G|-------9-------7-------5-----0-----0-|
D|-------9-------7-------5-3/5---5\3---|
A|-2-2-2-7-5-5-5-5-5-5-5-3-------------|
E|-0-0-0---2-2-2---3-3-3---------------|
   P MPM   P MPM   P MPM

e|-----|
b|-----|
G|-----|
D|-----|
A|-2-2-|
E|-0-0-|
   P M
comments
We did not receive enough feedback on this tab! Please rate:
print report bad tab
1 2 3 4 5
I want to post or [tab]
guest
You may want to rate the tab now too:
select rating
Please do not post tabs as comments. Select "correction" instead!