Oops, an error
Loading. Please wait.

Soundnation - Whats Goin On Bass Tab

93 views 1 this week
no commentswrite comment
1 2 3 4 5
please rate
Autoscroll
+/-
esc
set tempo
stop
Contributor
Hey! There's an official Ultimate Guitar app which is ideal
for learning songs when you're away from computer. Get the app
WARNING: You are trying to view
                                    content from Ultimate-Guitar.com
                                    in an unauthorized application,
                                    which is prohibited.

                                    Please use an official Ultimate
                                    Guitar Tabs application for iPhone,
                                    iPad or Android to access legitimate
                                    chords, guitar, bass, and drum tabs
                                    from Ultimate-Guitar.com database.

                                    Type "ultimate guitar tabs" in Apple
                                    App Store's or Android Market's
                                    search to find the application.
For more info please visit our sites:

**************************************************************************
http://bandzone.cz/soundnation ... here you can find also the whole tab of bass, 
guitars, sax, synth - edited with tabledit.


Facebook|Soundnation

***************************************************************************

What's Goin' On?

Soundnation

4/4

|||||||||||||||||||||||||||||||||||||||||||||||||||||||||||||||||||||||||||



 intro: Am       |               |               |                
|----------------------------------------------------------------|
|----------------------------------------------------------------|
|----------------------------------------------------------------|
|----------------------------------------------------------------|
 
 |               |               |               |                
|----------------------------------------------------------------|
|----------------------------------------------------------------|
|----------------------------------------------------------------|
|----------------------------------------------------------------|
 
 |               |               |               |                
|----------------------------------------------------------------|
|----------------------------------------------------------------|
|----------------------------------------------------------------|
|----------------------------------------------------------------|
 
 |               |               |               |                
|----------------------------------------------------------------|
|----------------------------------------------------------------|
|----------------------------------------------------------------|
|----------------------------------------------------------------|
 
 |               |               |               |                
|----------------------------------------------------------------|
|----------------------------------------------------------------|
|0---------------------------------------------------------------|
|----------------------------------------------------------------|
 
 |               |               |               |                
|----------------------------------------------------------------|
|----------------------------------------------------------------|
|0---------------------------------------------------------------|
|----------------------------------------------------------------|
 
 |               |               |               |                
|----------------------------------------------------------------|
|----------------------------------------------------------------|
|0---------------------------------------------------------------|
|----------------------------------------------------------------|
 
 |               |               |               |                
|----------------------------------------------------------------|
|----------------------------------------------------------------|
|0---------------------------------------------------------------|
|----------------------------------------------------------------|
 
 |               |               |               |                
|----------------------------------------------------------------|
|----------------------------------------------------------------|
|0---------------------------------------------------------------|
|----------------------------------------------------------------|
 
 |               |               |               |                
|----------------------------------------------------------------|
|----------------------------------------------------------------|
|0---------------------------------------------------------------|
|----------------------------------------------------------------|
 
 |               |               |               |                
|----------------------------------------------------------------|
|----------------------------------------------------------------|
|0---------------0---------------0---------------0---------------|
|----------------------------------------------------------------|
 
 |               |               |               |                
|----------------------------------------------------------------|
|----------------------------------------------------------------|
|0-------0-------0-------0-------0-------0-------0-------0-------|
|----------------------------------------------------------------|
 
 Main: Am        |               |               |                
|----------------------------------------------------------------|
|----------------------------------------------------------------|
|----------------------------------------------------------------|
|5/--------------------------------------------------------------|
 
 |               |               |               |                
|----------------------------------------------------------------|
|----------------------------------------------------------------|
|----------------------------------------------------------------|
|----------------------------------------------------------------|
 
 Am              |               |               |                
|----------------------------------------------------------------|
|----------------------------------------------------------------|
|----------------------------------------------------------------|
|5/--------------------------------------------------------------|
 
 |               |               |               |                
|----------------------------------------------------------------|
|----------------------------------------------------------------|
|----------------------------------------------------------------|
|----------------------------------------------------------------|
 
 Am              |           C   |               |                
|----------------------------------------------------------------|
|----------------7-----------------------------------------------|
|----------------------------3-------3---------------------------|
|5---------------------------------------------------------------|
 
 |       D       |               |               G                
|----------------------------------------------------------------|
|----------------------------------------------------------------|
|--------5-------7-----------3-------3---------------------------|
|------------------------------------------------3---------------|
 
 Am              |           C   |               |                
|----------------------------------------------------------------|
|----------------7-----------------------------------------------|
|----------------------------3-------3---------------------------|
|5---------------------------------------------------------------|
 
 |       D       |               |               G                
|----------------------------------------------------------------|
|----------------------------------------------------------------|
|--------5-------7-----------3-------3---------------------------|
|------------------------------------------------3---------------|
 
 Verse: Am       |               |               |                
|----------------------------------------------------------------|
|----------------------------------------------------------------|
|------------------------------5-------------3-------------------|
|5/--------------0-------------------------------------5/--------|
 
 |           G   |               |               |                
|----------------------------------------------------------------|
|----------------------------------------------------------------|
|------------------------------5-------------3-------------------|
|------------3-------3---3---------------------------3/----------|
 
 Am              |               |               |                
|----------------------------------------------------------------|
|----------------------------------------------------------------|
|------------------------------5-------------3-------------------|
|5-----------------------------------------------------5/--------|
 
 |           G   |               |               |                
|----------------------------------------------------------------|
|----------------------------------------------------------------|
|------------------------------5-------------3-------------------|
|------------3-------3---3---------------------------3/----------|
 
 Am              |               |               |                
|----------------------------------------------------------------|
|----------------------------------------------------------------|
|------------------------------5-------------3-------------------|
|5-----------------------------------------------------5/--------|
 
 |           G   |               |               |                
|----------------------------------------------------------------|
|----------------------------------------------------------------|
|------------------------------5-------------3-------------------|
|------------3-------3---3---------------------------3/----------|
 
 Am              |               |               |                
|----------------------------------------------------------------|
|----------------------------------------------------------------|
|------------------------------5-------------3-------------------|
|5-----------------------------------------------------5/--------|
 
 |           G   |               |               |       Main: Am 
|----------------------------------------------------------------|
|----------------------------------------------------------------|
|------------------------------5-------------3-------------------|
|------------3-------3---3---------------------------3/----------|
 
 |               |           C   |               |                
|----------------------------------------------------------------|
|----------------7-----------------------------------------------|
|----------------------------3-------3---------------------------|
|5---------------------------------------------------------------|
 
 |       D       |           C   |               G                
|----------------------------------------------------------------|
|----------------------------------------------------------------|
|--------5-------7-----------3-------3---------------------------|
|------------------------------------------------3---------------|
 
 Am              |           C   |               |                
|----------------------------------------------------------------|
|----------------7-----------------------------------------------|
|----------------------------3-------3---------------------------|
|5---------------------------------------------------------------|
 
 |       D       |           C   |               G                
|----------------------------------------------------------------|
|----------------------------------------------------------------|
|--------5-------7-----------3-------3---------------------------|
|------------------------------------------------3---------------|
 
 Am              |               |               |                
|----------------------------------------------------------------|
|----------------------------------------------------------------|
|------------------------------5-------------3-------------------|
|5/--------------0-------------------------------------5/--------|
 
 |           G   |               |               |                
|----------------------------------------------------------------|
|----------------------------------------------------------------|
|------------------------------5-------------3-------------------|
|------------3-------3---3---------------------------3/----------|
 
 Am              |               |               |                
|----------------------------------------------------------------|
|----------------------------------------------------------------|
|------------------------------5-------------3-------------------|
|5-----------------------------------------------------5/--------|
 
 |           G   |               |               |                
|----------------------------------------------------------------|
|----------------------------------------------------------------|
|------------------------------5-------------3-------------------|
|------------3-------3---3---------------------------3/----------|
 
 Am              |               |               |                
|----------------------------------------------------------------|
|----------------------------------------------------------------|
|------------------------------5-------------3-------------------|
|5-----------------------------------------------------5/--------|
 
 |           G   |               |               |                
|----------------------------------------------------------------|
|----------------------------------------------------------------|
|------------------------------5-------------3-------------------|
|------------3-------3---3---------------------------3/----------|
 
 Am              |               |               |                
|----------------------------------------------------------------|
|----------------------------------------------------------------|
|------------------------------5-------------3-------------------|
|5-----------------------------------------------------5/--------|
 
 |           G   |               |               |                
|----------------------------------------------------------------|
|----------------------------------------------------------------|
|------------------------------5-------------3-------------------|
|------------3-------3---3---------------------------3/----------|
 
 F               |               |               |                
|----------------------------------------------------------------|
|----------------------------------------------------------------|
|----------------------------------------------------------------|
|1-----------------------1-----------------------1---------------|
 
 E               |               |               |                
|----------------------------------------------------------------|
|----------------------------------------------------------------|
|--------------------------------7-------------------------------|
|0/--------------------------------------------------------------|
 
 |   Am          |               F               |                
|----------------------------------------------------------------|
|----------------------------------------------------------------|
|--------------------------------8-----------8-------------------|
|----5-------------------------5---------------------------------|
 
 |     C         |               D               |                
|----------------------------------------------------------------|
|----------------------------------------------------------------|
|------3---------------3---------5-----------5-------------------|
|----------------------------------------------------------------|
 
 |   Am          |               F               |                
|----------------------------------------------------------------|
|----------------------------------------------------------------|
|--------------------------------8-----------8-------------------|
|----5-------------------------5---------------------------------|
 
 |     C         |               G               |                
|----------------------------------------------------------------|
|----------------------------------------------------------------|
|------3---------------3-----------------------------------------|
|--------------------------------3-------------------------------|
 
 |   Am          |               D               |                
|----------------------------------------------------------------|
|----------------------------------------------------------------|
|--------------------------------5-----------5-------------------|
|----5-------------------------5---------------------------------|
 
 |     F         |             E |               |                
|----------------------------------------------------------------|
|----------------------------------------------------------------|
|------8-------8---------------7---------------------------------|
|----------------------------------------------------------------|
 
 |       F       |               |               |                
|----------------------------------------------------------------|
|----------------------------------------------------------------|
|--------------------------------8-------------------------------|
|----------------------------------------------------------------|
 
 |         E     |               |               |                
|----------------------------------------------------------------|
|----------------------------------------------------------------|
|----------7-------7---------------------------------------------|
|----------------------------------------------------------------|
 
 |               |           C   |               |                
|----------------------------------------------------------------|
|----------------7-----------------------------------------------|
|----------------------------3-------3---------------------------|
|5---------------------------------------------------------------|
 
 |       D       |           C   |               G                
|----------------------------------------------------------------|
|----------------------------------------------------------------|
|--------5-------7-----------3-------3---------------------------|
|------------------------------------------------3---------------|
 
 Am              |           C   |               |                
|----------------------------------------------------------------|
|----------------7-----------------------------------------------|
|----------------------------3-------3---------------------------|
|5---------------------------------------------------------------|
 
 |       D       |           C   |               G                
|----------------------------------------------------------------|
|----------------------------------------------------------------|
|--------5-------7-----------3-------3---------------------------|
|------------------------------------------------3---------------|
 
 Am              |               |               |                
|----------------------------------------------------------------|
|----------------------------------------------------------------|
|------------------------------5-------------3-------------------|
|5/--------------0-------------------------------------5/--------|
 
 |           G   |               |               |                
|----------------------------------------------------------------|
|----------------------------------------------------------------|
|------------------------------5-------------3-------------------|
|------------3-------3---3---------------------------3/----------|
 
 Am              |               |               |                
|----------------------------------------------------------------|
|----------------------------------------------------------------|
|------------------------------5-------------3-------------------|
|5-----------------------------------------------------5/--------|
 
 |           G   |               |               |                
|----------------------------------------------------------------|
|----------------------------------------------------------------|
|------------------------------5-------------3-------------------|
|------------3-------3---3---------------------------3/----------|
 
 Am              |               |               |                
|----------------------------------------------------------------|
|----------------------------------------------------------------|
|------------------------------5-------------3-------------------|
|5-----------------------------------------------------5/--------|
 
 |           G   |               |               |                
|----------------------------------------------------------------|
|----------------------------------------------------------------|
|------------------------------5-------------3-------------------|
|------------3-------3---3---------------------------3/----------|
 
 Am              |               |               |                
|----------------------------------------------------------------|
|----------------------------------------------------------------|
|------------------------------5-------------3-------------------|
|5-----------------------------------------------------5/--------|
 
 |           G   |               |               |                
|----------------------------------------------------------------|
|----------------------------------------------------------------|
|------------------------------5-------------3-------------------|
|------------3-------3---3---------------------------3/----------|
 
 F               |               |               |                
|----------------------------------------------------------------|
|----------------------------------------------------------------|
|----------------------------------------------------------------|
|1-----------------------1-----------------------1---------------|
 
 E               |               |               |                
|----------------------------------------------------------------|
|----------------------------------------------------------------|
|--------------------------------7-------------------------------|
|0/--------------------------------------------------------------|
 
 |   Am          |               F               |                
|----------------------------------------------------------------|
|----------------------------------------------------------------|
|--------------------------------8-----------8-------------------|
|----5-------------------------5---------------------------------|
 
 |     C         |               D               |                
|----------------------------------------------------------------|
|----------------------------------------------------------------|
|------3---------------3---------5-----------5-------------------|
|----------------------------------------------------------------|
 
 |   Am          |               F               |                
|----------------------------------------------------------------|
|----------------------------------------------------------------|
|--------------------------------8-----------8-------------------|
|----5-------------------------5---------------------------------|
 
 |     C         |               G               |                
|----------------------------------------------------------------|
|----------------------------------------------------------------|
|------3---------------3-----------------------------------------|
|--------------------------------3-------------------------------|
 
 |   Am          |               D               |                
|----------------------------------------------------------------|
|----------------------------------------------------------------|
|--------------------------------5-----------5-------------------|
|----5-------------------------5---------------------------------|
 
 |     F         |             E |               |                
|----------------------------------------------------------------|
|----------------------------------------------------------------|
|------8-------8---------------7---------------------------------|
|----------------------------------------------------------------|
 
 |       F       |               |               |                
|----------------------------------------------------------------|
|----------------------------------------------------------------|
|--------------------------------8-------------------------------|
|----------------------------------------------------------------|
 
 |         E     |               |               |                
|----------------------------------------------------------------|
|----------------------------------------------------------------|
|----------7-------7---------------------------------------------|
|----------------------------------------------------------------|
 
 |               |               |               |                
|----------------------------------------------------------------|
|----------------------------------------------------------------|
|----------------------------------------------------------------|
|3---5---------5---5-------5---5-------5---5-------5-------------|
 
 |               |               |               |                
|----------------------------------------------------------------|
|----------------------------------------------------------------|
|----------------------------------------------------------------|
|3---5---------5---5-------5---5-------5---5-------5-------------|
 
 |               |               |               |                
|----------------------------------------------------------------|
|----------------------------------------------------------------|
|----------------------------------------------------------------|
|3---5---------5---5-------5---5-------5---5-------5-------------|
 
 |               |               |               |                
|----------------------------------------------------------------|
|----------------------------------------------------------------|
|----------------------------------------------------------------|
|3---5---------5---5-------5---5-------5---5-------5-------------|
 
 |               |               |               |                
|----------------------------------------------------------------|
|----------------------------------------------------------------|
|----------------------------------------------------------------|
|3---5---------5---5-------5---5-------5---5-------5-------------|
 
 |               |               |               |                
|----------------------------------------------------------------|
|----------------------------------------------------------------|
|----------------------------------------------------------------|
|3---5---------5---5-------5---5-------5---5-------5-------------|
 
 |               |               |               |                
|----------------------------------------------------------------|
|----------------------------------------------------------------|
|----------------------------------------------------------------|
|3---5---------5---5-------5---5-------5---5-------5-------------|
 
 |               |               |               |                
|----------------------------------------------------------------|
|----------------------------------------------------------------|
|----------------------------------------------------------------|
|3---5---------5---5-------5---5-------5---5-------5-------------|
 
 |               |               |               |                
|----------------------------------------------------------------|
|----------------------------------------------------------------|
|----------------------------------------------------------------|
|3---5---------5---5-------5---5-------5---5-------5-------------|
 
 |               |               |               |                
|----------------------------------------------------------------|
|----------------------------------------------------------------|
|----------------------------------------------------------------|
|3---5---------5---5-------5---5-------5---5-------5-------------|
 
 |               |               |               |                
|----------------------------------------------------------------|
|----------------------------------------------------------------|
|----------------------------------------------------------------|
|5-------5-------5-------5-------5-------5-------5-------5-------|
 
 |               |               |               |                
|----------------------------------------------------------------|
|----------------------------------------------------------------|
|----------------------------------------------------------------|
|5---5---5---5---5---5---5---5---5-------------------------------|
 
 |   Am          |               F               |                
|----------------------------------------------------------------|
|----------------------------------------------------------------|
|--------------------------------8-----------8-------------------|
|----5-------------------------5---------------------------------|
 
 |     C         |               D               |                
|----------------------------------------------------------------|
|----------------------------------------------------------------|
|------3---------------3---------5-----------5-------------------|
|----------------------------------------------------------------|
 
 |   Am          |               F               |                
|----------------------------------------------------------------|
|----------------------------------------------------------------|
|--------------------------------8-----------8-------------------|
|----5-------------------------5---------------------------------|
 
 |     C         |               G               |                
|----------------------------------------------------------------|
|----------------------------------------------------------------|
|------3---------------3-----------------------------------------|
|--------------------------------3-------------------------------|
 
 |   Am          |               D               |                
|----------------------------------------------------------------|
|----------------------------------------------------------------|
|--------------------------------5-----------5-------------------|
|----5-------------------------5---------------------------------|
 
 |     F         |             E |               |                
|----------------------------------------------------------------|
|----------------------------------------------------------------|
|------8-------8---------------7---------------------------------|
|----------------------------------------------------------------|
 
 |   Am          |               F               |                
|----------------------------------------------------------------|
|----------------------------------------------------------------|
|--------------------------------8-----------8-------------------|
|----5-------------------------5---------------------------------|
 
 |     C         |               D               |                
|----------------------------------------------------------------|
|----------------------------------------------------------------|
|------3---------------3---------5-----------5-------------------|
|----------------------------------------------------------------|
 
 |   Am          |               F               |                
|----------------------------------------------------------------|
|----------------------------------------------------------------|
|--------------------------------8-----------8-------------------|
|----5-------------------------5---------------------------------|
 
 |     C         |               G               |                
|----------------------------------------------------------------|
|----------------------------------------------------------------|
|------3---------------3-----------------------------------------|
|--------------------------------3-------------------------------|
 
 |   Am          |               D               |                
|----------------------------------------------------------------|
|----------------------------------------------------------------|
|--------------------------------5-----------5-------------------|
|----5-------------------------5---------------------------------|
 
 |     F         |             E |               |                
|----------------------------------------------------------------|
|----------------------------------------------------------------|
|------8-------8---------------7---------------------------------|
|----------------------------------------------------------------|
 
 |       F       |               |               |                
|----------------------------------------------------------------|
|----------------------------------------------------------------|
|--------------------------------8-------------------------------|
|----------------------------------------------------------------|
 
 |         E     |               |               |                
|----------------------------------------------------------------|
|----------------------------------------------------------------|
|----------7-------7---------------------------------------------|
|----------------------------------------------------------------|
 
 Am              |               |               |                
|----------------------------------------------------------------|
|7---------------------------------------------------------------|
|----------------------------------------------------------------|
|5---------------------------------------------------------------|
 
 |               |               |               |                
|----------------------------------------------------------------|
|----------------------------------------------------------------|
|----------------------------------------------------------------|
|----------------------------------------------------------------|
 

comments
We did not receive enough feedback on this tab! Please rate:
print report bad tab
1 2 3 4 5
I want to post or [tab]
guest
You may want to rate the tab now too:
select rating
Please do not post tabs as comments. Select "correction" instead!