Oops, an error
Loading. Please wait.

Soundnation - Whats Goin On Tab

58 views 1 this week
no commentswrite comment
1 2 3 4 5
please rate
Autoscroll
+/-
esc
set tempo
stop
Contributor
Difficulty
intermediate
WARNING: You are trying to view
                                    content from Ultimate-Guitar.com
                                    in an unauthorized application,
                                    which is prohibited.

                                    Please use an official Ultimate
                                    Guitar Tabs application for iPhone,
                                    iPad or Android to access legitimate
                                    chords, guitar, bass, and drum tabs
                                    from Ultimate-Guitar.com database.

                                    Type "ultimate guitar tabs" in Apple
                                    App Store's or Android Market's
                                    search to find the application.
Here you find the tab of guitar 2 (the main guitar) and for better coverage of the 
song, also the intro of the guitar 1. For more info please visit our sites:

**************************************************************************
http://bandzone.cz/soundnation ... here you can find also the whole tab of bass, 
guitars, sax, synth - edited with tabledit.


Facebook|Soundnation

***************************************************************************

What's Goin' On?

Soundnation

4/4

|||||||||||||||||||||||||||||||||||||||||||||||||||||||||||||||||||||||||||

GUITAR 1
 1               2               3               4
 intro: Am       |               |               |                
|----------------------------------------------------------------|
|----------------------------------------------------------------|
|----------------------------------------------------------------|
|5-------------7---7-------7---7-------7---7-------7-------------|
|0-------------------------0-----------------------0-------------|
|----------------------------------------------------------------|
repeats till main riff - guitar 2

GUITAR 2 

intro
 |               |               |               |                
|----------------------------------------------------------------|
|----------------------------------------------------------------|
|----------------------------------------------------------------|
|----------------------------------------------------------------|
|----------------------------------------------------------------|
|----------------------------------------------------------------|
 
 |               |               |               |                
|----------------------------------------------------------------|
|----------------------------------------------------------------|
|----------------------------------------------------------------|
|----------------------------------------------------------------|
|----------------------------------------------------------------|
|----------------------------------------------------------------|
 
 |               |               |               |                
|----------------------------------------------------------------|
|----------------------------------------------------------------|
|----------------------------------------------------------------|
|----------------------------------------------------------------|
|----------------------------------------------------------------|
|----------------------------------------------------------------|
 
 |               |               |               |                
|----------------------------------------------------------------|
|----------------------------------------------------------------|
|----------------------------------------------------------------|
|----------------------------------------------------------------|
|----------------------------------------------------------------|
|----------------------------------------------------------------|
 
 |               |               |               |                
|----------------------------------------------------------------|
|----------------------------------------------------------------|
|------------------------------5---------------------------------|
|------------------------------------------7---------------------|
|----------------------------------------------------------------|
|----------------------------------------------------------------|
 
 |               |               |               |                
|----------------------------------------------------------------|
|----------------------------------------------------------------|
|------------------------------7---------------------------------|
|------------------------------------------7---------------------|
|----------------------------------------------------------------|
|----------------------------------------------------------------|
 
 |               |               |               |                
|----------------------------------------------------------------|
|------------------------------5---------------------------------|
|----------------------------------------------------------------|
|------------------------------------------7---------------------|
|----------------------------------------------------------------|
|----------------------------------------------------------------|
 
 |               |               |               |                
|----------------------------------------------------------------|
|------------------------------6---------------------------------|
|----------------------------------------------------------------|
|------------------------------------------7---------------------|
|----------------------------------------------------------------|
|----------------------------------------------------------------|
 
 |               |               |               |                
|----------------------------------------------------------------|
|------------------------------8---------------------------------|
|----------------------------------------------------------------|
|------------------------------------------7---------------------|
|----------------------------------------------------------------|
|----------------------------------------------------------------|
 
 |               |               |               |                
|----------------------------------------------------------------|
|------------------------------10--------------------------------|
|----------------------------------------------------------------|
|------------------------------------------7---------------------|
|----------------------------------------------------------------|
|----------------------------------------------------------------|
 
 |               |               |               |                
|----------------------------------------------------------------|
|----------------------------------------------------------------|
|--------------------------------9-------9-------9-------9-------|
|7-------7-------7-------7-------7-------7-------7-------7-------|
|----------------------------------------------------------------|
|----------------------------------------------------------------|
 
 |               |               |               |                
|8-------8-------8-------8-------8-------8-------8-------8-------|
|10------10------10------10------10------10------10------10------|
|9-------9-------9-------9-------9-------9-------9-------9-------|
|7-------7-------7-------7-------7-------7-------7-------7-------|
|----------------------------------------------------------------|
|----------------------------------------------------------------|
 
 Main: Am        |           C   |               |                
|----------------5-----------------------------------------------|
|----------------5-----------5-------5---------------------------|
|----------------5-----------5-------5-------------------5-------|
|7---------------------------5-------5-----------5-6-7-----------|
|7---------------------------------------------------------------|
|5---------------------------------------------------------------|
 
 |       D       |           C   |               G                
|----------------------------------------------------------------|
|----------------------------------------------------------------|
|----------------------------------------------------------------|
|----------------5-----------------------------------------------|
|--------5-------------------3-------3-------3---3-5-3-----------|
|--------------------------------------------------------3-------|
 
 Am              |           C   |               |                
|----------------5-----------------------------------------------|
|----------------5-----------5-------5---------------------------|
|----------------5-----------5-------5-------------------5-------|
|7---------------------------5-------5-----------5-6-7-----------|
|7---------------------------------------------------------------|
|5---------------------------------------------------------------|
 
 |       D       |           C   |               G                
|----------------------------------------------------------------|
|----------------------------------------------------------------|
|----------------------------------------------------------------|
|----------------5-----------------------------------------------|
|--------5-------------------3-------3-------3---3-5-3-----------|
|--------------------------------------------------------3-------|
 
 Am              |           C   |               |                
|----------------5-----------------------------------------------|
|----------------5-----------5-------5---------------------------|
|----------------5-----------5-------5-------------------5-------|
|7---------------------------5-------5-----------5-6-7-----------|
|7---------------------------------------------------------------|
|5---------------------------------------------------------------|
 
 |       D       |           C   |               G                
|----------------------------------------------------------------|
|----------------------------------------------------------------|
|----------------------------------------------------------------|
|----------------5-----------------------------------------------|
|--------5-------------------3-------3-------3---3-5-3-----------|
|--------------------------------------------------------3-------|
 
 Am              |           C   |               |                
|----------------5-----------------------------------------------|
|----------------5-----------5-------5---------------------------|
|----------------5-----------5-------5-------------------5-------|
|7---------------------------5-------5-----------5-6-7-----------|
|7---------------------------------------------------------------|
|5---------------------------------------------------------------|
 
 |       D       |               |               G                
|----------------------------------------------------------------|
|----------------------------------------------------------------|
|----------------------------------------------------------------|
|----------------5-----------------------------------------------|
|--------5-------------------3-------3-------3---3-5-3-----------|
|--------------------------------------------------------3-------|
 
 Verse: Am       |               |               |                
|----------------------------------------------------------------|
|----5/----------------------------------------------------------|
|----------------------------------------------------------------|
|--7/------------------------------------------------------------|
|----------------------------------------------------------------|
|5/--------------------------------------------------------------|
 
 |               |               |               |                
|----------------------------------------------------------------|
|----------------------------------------------------------------|
|----------------------------------------------------------------|
|----------------------------------------------------------------|
|----------------------------------------------------------------|
|----------------------------------------------------------------|
 
 |               |               |               |                
|----------------------------------------------------------------|
|----------------------------------------------------------------|
|----------------------------------------------------------------|
|----------------------------------------------------------------|
|----------------------------------------------------------------|
|----------------------------------------------------------------|
 
 |               |               |               |                
|----------------------------------------------------------------|
|----------------------------------------------------------------|
|----------------------------------------------------------------|
|----------------------------------------------------------------|
|----------------------------------------------------------------|
|----------------------------------------------------------------|
 
 |               |               |               |                
|----------------------------------------------------------------|
|----------------------------------------------------------------|
|----------------------------------------------------------------|
|----------------------------------------------------------------|
|----------------------------------------------------------------|
|----------------------------------------------------------------|
 
 |               |               |               |                
|----------------------------------------------------------------|
|----------------------------------------------------------------|
|----------------------------------------------------------------|
|----------------------------------------------------------------|
|----------------------------------------------------------------|
|----------------------------------------------------------------|
 
 |               |               |               |                
|----------------------------------------------------------------|
|----------------------------------------------------------------|
|----------------------------------------------------------------|
|----------------------------------------------------------------|
|----------------------------------------------------------------|
|----------------------------------------------------------------|
 
 |               |               |               |       Main: Am 
|----------------------------------------------------------------|
|----------------------------------------------------------------|
|----------------------------------------------------------------|
|----------------------------------------------------------------|
|----------------------------------------------------------------|
|----------------------------------------------------------------|
 
 |               |           C   |               |                
|----------------5-----------------------------------------------|
|----------------5-----------5-------5---------------------------|
|----------------5-----------5-------5-------------------5-------|
|7---------------------------5-------5-----------5-6-7-----------|
|7---------------------------------------------------------------|
|5---------------------------------------------------------------|
 
 |       D       |           C   |               G                
|----------------------------------------------------------------|
|----------------------------------------------------------------|
|----------------------------------------------------------------|
|----------------5-----------------------------------------------|
|--------5-------------------3-------3-------3---3-5-3-----------|
|--------------------------------------------------------3-------|
 
 Am              |           C   |               |                
|----------------5-----------------------------------------------|
|----------------5-----------5-------5---------------------------|
|----------------5-----------5-------5-------------------5-------|
|7---------------------------5-------5-----------5-6-7-----------|
|7---------------------------------------------------------------|
|5---------------------------------------------------------------|
 
 |       D       |           C   |               G                
|----------------------------------------------------------------|
|----------------------------------------------------------------|
|----------------------------------------------------------------|
|----------------5-----------------------------------------------|
|--------5-------------------3-------3-------3---3-5-3-----------|
|--------------------------------------------------------3-------|
 
 Am              |               |               |                
|----------------------------------------------------------------|
|----5/----------------------------------------------------------|
|----------------------------------------------------------------|
|--7/------------------------------------------------------------|
|----------------------------------------------------------------|
|5/--------------------------------------------------------------|
 
 |               |               |               |                
|----------------------------------------------------------------|
|----------------------------------------------------------------|
|----------------------------------------------------------------|
|----------------------------------------------------------------|
|----------------------------------------------------------------|
|----------------------------------------------------------------|
 
 |               |               |               |                
|----------------------------------------------------------------|
|----------------------------------------------------------------|
|----------------------------------------------------------------|
|----------------------------------------------------------------|
|----------------------------------------------------------------|
|----------------------------------------------------------------|
 
 |               |               |               |                
|----------------------------------------------------------------|
|----------------------------------------------------------------|
|----------------------------------------------------------------|
|----------------------------------------------------------------|
|----------------------------------------------------------------|
|----------------------------------------------------------------|
 
 |               |               |               |                
|----------------------------------------------------------------|
|----------------------------------------------------------------|
|----------------------------------------------------------------|
|----------------------------------------------------------------|
|----------------------------------------------------------------|
|----------------------------------------------------------------|
 
 |               |               |               |                
|----------------------------------------------------------------|
|----------------------------------------------------------------|
|----------------------------------------------------------------|
|----------------------------------------------------------------|
|----------------------------------------------------------------|
|----------------------------------------------------------------|
 
 |               |               |               |                
|----------------------------------------------------------------|
|----------------------------------------------------------------|
|----------------------------------------------------------------|
|----------------------------------------------------------------|
|----------------------------------------------------------------|
|----------------------------------------------------------------|
 
 |               |               |               |                
|----------------------------------------------------------------|
|----------------------------------------------------------------|
|----------------------------------------------------------------|
|----------------------------------------------------------------|
|----------------------------------------------------------------|
|----------------------------------------------------------------|
 
 F               |               |               |                
|----------1-------------1-----------------------1---------------|
|--------1---------------1-----------------------1---------------|
|------2-----------------2-----------------------2---------------|
|----3-------------------3-----------------------3---------------|
|--3---------------------3-----------------------3---------------|
|1-----------------------1-----------------------1---------------|
 
 E7              |               |               |                
|----------0-----------------------------------------------------|
|--------3-------------------------------------------------------|
|------1---------------------------------------------------------|
|----0-----------------------------------------------------------|
|--2-------------------------------------------------------------|
|0---------------------------------------------------------------|
 
 |   Am          |               F               |                
|----------------------------------------------------------------|
|----5-------------------------5-10------------------------------|
|----5-------------------------5-10------------------------------|
|----7-------------------------7-10----------10------------------|
|----7-------------------------7-8-----------8-------------------|
|----5-------------------------5---------------------------------|
 
 |     C         |               D               |                
|----------------------------------------------------------------|
|------5---------------5---------7-------------------------------|
|------5---------------5---------7-----------7-------------------|
|------5---------------5---------7-----------7-------------------|
|------3---------------------------------------------------------|
|----------------------------------------------------------------|
 
 |   Am          |               F               |                
|----------------------------------------------------------------|
|----5-------------------------5-10------------------------------|
|----5-------------------------5-10------------------------------|
|----7-------------------------7-10----------10------------------|
|----7-------------------------7-8-----------8-------------------|
|----5-------------------------5---------------------------------|
 
 |     C         |               G               |                
|----------------------------------------------------------------|
|------5---------------5---------5-----------5-------------------|
|------5---------------5-------4-4-----------4-------------------|
|------5---------------5-------5-5-----------5-------------------|
|----------------------------------------------------------------|
|----------------------------------------------------------------|
 
 |   Am          |               D5              |                
|----------------------------------------------------------------|
|----5-------------------------5---------------------------------|
|----5-------------------------5-5-----------5-------------------|
|----7-------------------------7-4-----------4-------------------|
|----7-------------------------7-5-----------5-------------------|
|----5-------------------------5---------------------------------|
 
 |     F5        |             E5|               |                
|----------------------------------------------------------------|
|----------------------------------------------------------------|
|------8-------8---------------7---------------------------------|
|------7-------7---------------6---------------------------------|
|------8-------8---------------7---------------------------------|
|----------------------------------------------------------------|
 
 |       F5      |               |               |                
|----------------------------------------------------------------|
|----------------------------------------------------------------|
|--------------------------------8-------------------------------|
|--------------------------------7-------------------------------|
|--------------------------------8-------------------------------|
|----------------------------------------------------------------|
 
 |         E5    |               |               |                
|----------------------------------------------------------------|
|----------------------------------------------------------------|
|----------7-------7---------------------------------------------|
|----------6-------6---------------------------------------------|
|----------7-------7---------------------------------------------|
|----------------------------------------------------------------|
 
 |               |           C   |               |                
|----------------5-----------------------------------------------|
|----------------5-----------5-------5---------------------------|
|----------------5-----------5-------5-------------------5-------|
|7---------------------------5-------5-----------5-6-7-----------|
|7---------------------------------------------------------------|
|5---------------------------------------------------------------|
 
 |       D       |           C   |               G                
|----------------------------------------------------------------|
|----------------------------------------------------------------|
|----------------------------------------------------------------|
|----------------5-----------------------------------------------|
|--------5-------------------3-------3-------3---3-5-3-----------|
|--------------------------------------------------------3-------|
 
 Am              |           C   |               |                
|----------------5-----------------------------------------------|
|----------------5-----------5-------5---------------------------|
|----------------5-----------5-------5-------------------5-------|
|7---------------------------5-------5-----------5-6-7-----------|
|7---------------------------------------------------------------|
|5---------------------------------------------------------------|
 
 |       D       |           C   |               G                
|----------------------------------------------------------------|
|----------------------------------------------------------------|
|----------------------------------------------------------------|
|----------------5-----------------------------------------------|
|--------5-------------------3-------3-------3---3-5-3-----------|
|--------------------------------------------------------3-------|
 
 Am              |               |               |                
|----------------------------------------------------------------|
|----5/----------------------------------------------------------|
|----------------------------------------------------------------|
|--7/------------------------------------------------------------|
|----------------------------------------------------------------|
|5/--------------------------------------------------------------|
 
 |               |               |               |                
|----------------------------------------------------------------|
|----------------------------------------------------------------|
|----------------------------------------------------------------|
|----------------------------------------------------------------|
|----------------------------------------------------------------|
|----------------------------------------------------------------|
 
 |               |               |               |                
|----------------------------------------------------------------|
|----------------------------------------------------------------|
|----------------------------------------------------------------|
|----------------------------------------------------------------|
|----------------------------------------------------------------|
|----------------------------------------------------------------|
 
 |               |               |               |                
|----------------------------------------------------------------|
|----------------------------------------------------------------|
|----------------------------------------------------------------|
|----------------------------------------------------------------|
|----------------------------------------------------------------|
|----------------------------------------------------------------|
 
 |               |               |               |                
|----------------------------------------------------------------|
|----------------------------------------------------------------|
|----------------------------------------------------------------|
|----------------------------------------------------------------|
|----------------------------------------------------------------|
|----------------------------------------------------------------|
 
 |               |               |               |                
|----------------------------------------------------------------|
|----------------------------------------------------------------|
|----------------------------------------------------------------|
|----------------------------------------------------------------|
|----------------------------------------------------------------|
|----------------------------------------------------------------|
 
 |               |               |               |                
|----------------------------------------------------------------|
|----------------------------------------------------------------|
|----------------------------------------------------------------|
|----------------------------------------------------------------|
|----------------------------------------------------------------|
|----------------------------------------------------------------|
 
 |               |               |               |                
|----------------------------------------------------------------|
|----------------------------------------------------------------|
|----------------------------------------------------------------|
|----------------------------------------------------------------|
|----------------------------------------------------------------|
|----------------------------------------------------------------|
 
 F               |               |               |                
|----------1-------------1-----------------------1---------------|
|--------1---------------1-----------------------1---------------|
|------2-----------------2-----------------------2---------------|
|----3-------------------3-----------------------3---------------|
|--3---------------------3-----------------------3---------------|
|1-----------------------1-----------------------1---------------|
 
 E5              |               |               |                
|----------0-----------------------------------------------------|
|--------3-------------------------------------------------------|
|------1---------------------------------------------------------|
|----0-----------------------------------------------------------|
|--2-------------------------------------------------------------|
|0---------------------------------------------------------------|
 
 |   Am          |               F               |                
|----------------------------------------------------------------|
|----5-------------------------5-10------------------------------|
|----5-------------------------5-10------------------------------|
|----7-------------------------7-10----------10------------------|
|----7-------------------------7-8-----------8-------------------|
|----5-------------------------5---------------------------------|
 
 |     C         |               D               |                
|----------------------------------------------------------------|
|------5---------------5---------7-------------------------------|
|------5---------------5---------7-----------7-------------------|
|------5---------------5---------7-----------7-------------------|
|------3---------------------------------------------------------|
|----------------------------------------------------------------|
 
 |   Am          |               F               |                
|----------------------------------------------------------------|
|----5-------------------------5-10------------------------------|
|----5-------------------------5-10------------------------------|
|----7-------------------------7-10----------10------------------|
|----7-------------------------7-8-----------8-------------------|
|----5-------------------------5---------------------------------|
 
 |     C         |               G               |                
|----------------------------------------------------------------|
|------5---------------5---------5-----------5-------------------|
|------5---------------5-------4-4-----------4-------------------|
|------5---------------5-------5-5-----------5-------------------|
|----------------------------------------------------------------|
|----------------------------------------------------------------|
 
 |   Am          |               D5              |                
|----------------------------------------------------------------|
|----5-------------------------5---------------------------------|
|----5-------------------------5-5-----------5-------------------|
|----7-------------------------7-4-----------4-------------------|
|----7-------------------------7-5-----------5-------------------|
|----5-------------------------5---------------------------------|
 
 |     F5        |             E5|               |                
|----------------------------------------------------------------|
|----------------------------------------------------------------|
|------8-------8---------------7---------------------------------|
|------7-------7---------------6---------------------------------|
|------8-------8---------------7---------------------------------|
|----------------------------------------------------------------|
 
 |       F5      |               |               |                
|----------------------------------------------------------------|
|----------------------------------------------------------------|
|--------------------------------8-------------------------------|
|--------------------------------7-------------------------------|
|--------------------------------8-------------------------------|
|----------------------------------------------------------------|
 
 |         E5    |               |               |                
|----------------------------------------------------------------|
|----------------------------------------------------------------|
|----------7-------7---------------------------------------------|
|----------6-------6---------------------------------------------|
|----------7-------7---------------------------------------------|
|----------------------------------------------------------------|
 
 |               |               |               |                
|----------------------------------------------------------------|
|----------------------------------------------------------------|
|----------------------------------------------------------------|
|----------------------------------------------------------------|
|----------------------------------------------------------------|
|----------------------------------------------------------------|
 
 |               |               |               |                
|----------------------------------------------------------------|
|----------------------------------------------------------------|
|----------------------------------------------------------------|
|----------------------------------------------------------------|
|----------------------------------------------------------------|
|----------------------------------------------------------------|
 
 |               |               |               |                
|----------------------------------------------------------------|
|----------------------------------------------------------------|
|----------------------------------------------------------------|
|----------------------------------------------------------------|
|----------------------------------------------------------------|
|----------------------------------------------------------------|
 
 |               |               |               |                
|------------------------------------------7{--------5{----------|
|------------------------------------------7{--------5{----------|
|------------------------------------------7{--------5{----------|
|----------------------------------------------------------------|
|----------------------------------------------------------------|
|----------------------------------------------------------------|
 
 |               |               |               |                
|12--------------------------------------------------------------|
|12--------------------------------------------------------------|
|12--------------------------------------------------------------|
|----------------------------------------------------------------|
|----------------------------------------------------------------|
|----------------------------------------------------------------|
 
 |               |               |               |                
|----------------------------------------------------------------|
|----------------------------------------------------------------|
|----------------------------------------------------------------|
|----------------------------------------------------------------|
|----------------------------------------------------------------|
|----------------------------------------------------------------|
 
 |               |               |               |                
|----------------------------------------------------------------|
|----------------------------------------------------------------|
|----------------------------------------------------------------|
|----------------------------------------------------------------|
|----------------------------------------------------------------|
|----------------------------------------------------------------|
 
 |               |               |               |                
|----------------------------------------------------------------|
|----------------------------------------------------------------|
|----------------------------------------------------------------|
|----------------------------------------------------------------|
|----------------------------------------------------------------|
|----------------------------------------------------------------|
 
 |               |               |               |                
|----------------------------------------------------------------|
|----------------------------------------------------------------|
|----------------------------------------------------------------|
|----------------------------------------------------------------|
|----------------------------------------------------------------|
|----------------------------------------------------------------|
 
 |               |               |               |                
|----------------------------------------------------------------|
|----------------------------------------------------------------|
|----------------------------------------------------------------|
|----------------------------------------------------------------|
|----------------------------------------------------------------|
|----------------------------------------------------------------|
 
 |               |               |               |                
|----------------------------------------------------------------|
|----------------------------------------------------------------|
|----------------------------------------------------------------|
|----------------------------------------------------------------|
|----------------------------------------------------------------|
|----------------------------------------------------------------|
 
 |               |               |               |                
|----------------------------------------------------------------|
|0-------0-------0-------0-------0-------------------------------|
|5-------5-------5-------5-------5-------------------------------|
|7-------7-------7-------7-------7-------------------------------|
|0-------0-------0-------0-------0-------------------------------|
|----------------------------------------------------------------|
 
 |   Am          |               F               |                
|----------------------------------------------------------------|
|----5-------------------------5-10------------------------------|
|----5-------------------------5-10------------------------------|
|----7-------------------------7-10----------10------------------|
|----7-------------------------7-8-----------8-------------------|
|----5-------------------------5---------------------------------|
 
 |     C         |               D               |                
|----------------------------------------------------------------|
|------5---------------5---------7-------------------------------|
|------5---------------5---------7-----------7-------------------|
|------5---------------5---------7-----------7-------------------|
|------3---------------------------------------------------------|
|----------------------------------------------------------------|
 
 |   Am          |               F               |                
|----------------------------------------------------------------|
|----5-------------------------5-10------------------------------|
|----5-------------------------5-10------------------------------|
|----7-------------------------7-10----------10------------------|
|----7-------------------------7-8-----------8-------------------|
|----5-------------------------5---------------------------------|
 
 |     C         |               G               |                
|----------------------------------------------------------------|
|------5---------------5---------5-----------5-------------------|
|------5---------------5-------4-4-----------4-------------------|
|------5---------------5-------5-5-----------5-------------------|
|----------------------------------------------------------------|
|----------------------------------------------------------------|
 
 |   Am          |               D5              |                
|----------------------------------------------------------------|
|----5-------------------------5---------------------------------|
|----5-------------------------5-5-----------5-------------------|
|----7-------------------------7-4-----------4-------------------|
|----7-------------------------7-5-----------5-------------------|
|----5-------------------------5---------------------------------|
 
 |     F5        |             E5|               |                
|----------------------------------------------------------------|
|----------------------------------------------------------------|
|------8-------8---------------7---------------------------------|
|------7-------7---------------6---------------------------------|
|------8-------8---------------7---------------------------------|
|----------------------------------------------------------------|
 
 |   Am          |               F               |                
|----------------------------------------------------------------|
|----5-------------------------5-10------------------------------|
|----5-------------------------5-10------------------------------|
|----7-------------------------7-10----------10------------------|
|----7-------------------------7-8-----------8-------------------|
|----5-------------------------5---------------------------------|
 
 |     C         |               D               |                
|----------------------------------------------------------------|
|------5---------------5---------7-------------------------------|
|------5---------------5---------7-----------7-------------------|
|------5---------------5---------7-----------7-------------------|
|------3---------------------------------------------------------|
|----------------------------------------------------------------|
 
 |   Am          |               F               |                
|----------------------------------------------------------------|
|----5-------------------------5-10------------------------------|
|----5-------------------------5-10------------------------------|
|----7-------------------------7-10----------10------------------|
|----7-------------------------7-8-----------8-------------------|
|----5-------------------------5---------------------------------|
 
 |     C         |               G               |                
|----------------------------------------------------------------|
|------5---------------5---------5-----------5-------------------|
|------5---------------5-------4-4-----------4-------------------|
|------5---------------5-------5-5-----------5-------------------|
|----------------------------------------------------------------|
|----------------------------------------------------------------|
 
 |   Am          |               D5              |                
|----------------------------------------------------------------|
|----5-------------------------5---------------------------------|
|----5-------------------------5-5-----------5-------------------|
|----7-------------------------7-4-----------4-------------------|
|----7-------------------------7-5-----------5-------------------|
|----5-------------------------5---------------------------------|
 
 |     F5        |             E5|               |                
|----------------------------------------------------------------|
|----------------------------------------------------------------|
|------8-------8---------------7---------------------------------|
|------7-------7---------------6---------------------------------|
|------8-------8---------------7---------------------------------|
|----------------------------------------------------------------|
 
 |       F5      |               |               |                
|----------------------------------------------------------------|
|----------------------------------------------------------------|
|--------------------------------8-------------------------------|
|--------------------------------7-------------------------------|
|--------------------------------8-------------------------------|
|----------------------------------------------------------------|
 
 |         E5    |               |               |                
|----------------------------------------------------------------|
|----------------------------------------------------------------|
|----------7-------7---------------------------------------------|
|----------6-------6---------------------------------------------|
|----------7-------7---------------------------------------------|
|----------------------------------------------------------------|
 
 |               |               |               |                
|5---------------------------------------------------------------|
|5---------------------------------------------------------------|
|5---------------------------------------------------------------|
|7---------------------------------------------------------------|
|7---------------------------------------------------------------|
|5---------------------------------------------------------------|
 
 |               |               |               |                
|----------------------------------------------------------------|
|----------------------------------------------------------------|
|----------------------------------------------------------------|
|----------------------------------------------------------------|
|----------------------------------------------------------------|
|----------------------------------------------------------------|
 

comments
We did not receive enough feedback on this tab! Please rate:
print report bad tab
1 2 3 4 5
I want to post or [tab]
guest
You may want to rate the tab now too:
select rating
Please do not post tabs as comments. Select "correction" instead!