Oops, an error
Loading. Please wait.

Structural Disorder - Pale Dressed Masses Bass Tab

ver1
ver1

Whole song

Interactive

More versions @911Tabs.com
18 views 1 this week
no commentswrite comment
1 2 3 4 5
please rate
Autoscroll
+/-
esc
set tempo
stop
Contributor
Difficulty
intermediate
WARNING: You are trying to view
                                    content from Ultimate-Guitar.com
                                    in an unauthorized application,
                                    which is prohibited.

                                    Please use an official Ultimate
                                    Guitar Tabs application for iPhone,
                                    iPad or Android to access legitimate
                                    chords, guitar, bass, and drum tabs
                                    from Ultimate-Guitar.com database.

                                    Type "ultimate guitar tabs" in Apple
                                    App Store's or Android Market's
                                    search to find the application.
Title: Pale Dressed Masses
SubTitle: Album Version
Artist: Structural Disorder
Words: Johannes West
Music: Johannes West
Tabber: Erik Arkö, Hjalmar Birgersson, Markus Tälth
Tempo = 150
Erik

Legend
L - tied note
x - dead note
h - hammer on/pull off
b - bend
s - slide
~ - vibrato
g - ghost note
> - accentuated note
t - trill
M - palm mute
. - staccato
P - popping (bass)
S - slapping (bass)
+ - tapping
W - wide vibrato
< - fade in
w - whammy bar
= - tremolo picking
v - brush up
^ - brush down
V - pick stroke up
n - pick stroke down

                                                                 
G |----|----|----|----|----|----|-------------------------------|
D |----|----|----|----|----|----|-------------------------------|
A |----|----|----|----|----|----|-------------------------------|
E |----|----|----|----|----|----|-------------------------------|
B |----|----|----|----|----|----|--3L-------3-----3-------------|

                                                                
-------------------------------|-------------------------------|
-------------------------------|-------------------------------|
-------------------------------|--------5--------5-------------|
-------------------------------|--3--------3-----------3-------|
--3L-------3-----3-------------|-------------------------------|

                                                                
-------------------------------|-------------------------------|
-------------------------------|-------------------------------|
--5--------------5-------------|-------------------------------|
--------3--3-----------3-------|--------6--------6-------------|
-------------------------------|--4--------4-----------4-------|

                                                                
-------------------------------|-------------------------------|
-------------------------------|-------------------------------|
-------------------------------|--------8--------8-------------|
--6--------------6-------------|--6--------6-----------6-------|
--------4--4-----------4-------|-------------------------------|

                                                                
-------------------------------|-------------------------------|
-------------------------------|-------------------------------|
--8--------------8-------------|--------12-------12------------|
--------6--6-----------6-------|--10-------10----------10------|
-------------------------------|-------------------------------|

                                                                
-------------------------------|-------------------------------|
--12s---10---------------------|-------------------------------|
-----------13----12------------|-------------------------------|
-----------------------13------|--------3--3.----------3.------|
-------------------------------|-------------------------------|

                                                                
-------------------------------|-------------------------------|
-------------------------------|-------------------------------|
-------------------------------|-------------------------------|
--------3--3.----------3.------|-------------------------------|
-------------------------------|--------4--4.----------4.------|

                                                                
-------------------------------|-------------------------------|
-------------------------------|-------------------------------|
-------------------------------|-------------------------------|
-------------------------------|--------6--6.----------6.------|
--------4--4.----------4.------|-------------------------------|

                                                                
-------------------------------|-------------------------------|
-------------------------------|-------------------------------|
-------------------------------|-------------------------------|
--------6--6.----------6.------|-------------------------------|
-------------------------------|--------3--3.----------3.------|

                                                                
-------------------------------|-------------------------------|
-------------------------------|-------------------------------|
-------------------------------|-------------------------------|
-------------------------------|--------3--3.----------3.------|
--------3--3.----------3.------|-------------------------------|

                                                                
-------------------------------|-------------------------------|
-------------------------------|-------------------------------|
-------------------------------|-------------------------------|
--------3--3.----------3.------|-------------------------------|
-------------------------------|--------4--4.----------4.------|

                                                                
-------------------------------|-------------------------------|
-------------------------------|-------------------------------|
-------------------------------|-------------------------------|
-------------------------------|--------6--6.----------6.------|
--------4--4.----------4.------|-------------------------------|

                                                                
-------------------------------|-------------------------------|
-------------------------------|-------------------------------|
-------------------------------|-------------------------------|
--------6--6.----------6.------|-------------------------------|
-------------------------------|--------3--3.----------3.------|

                                                                
-------------------------------|-------------------------------|
-------------------------------|-------------------------------|
-------------------------------|--------5--------5-------------|
-------------------------------|--3--------3.----------3-------|
--------3--3.----------3.------|-------------------------------|

                                                                
-------------------------------|-------------------------------|
-------------------------------|-------------------------------|
--5--------------5-------------|-------------------------------|
--------3--3.----------3-------|--------6--------6-------------|
-------------------------------|--4--------4.----------4-------|

                                                                
-------------------------------|-------------------------------|
-------------------------------|-------------------------------|
-------------------------------|--------8--------8-------------|
--6--------------6-------------|--6--------6-----------6-------|
--------4--4-----------4-------|-------------------------------|

                                                                
-------------------------------|-------------------------------|
-------------------------------|-------------------------------|
--8--------------8-------------|--------12-------12------------|
--------6--6-----------6-------|--10-------10----------10------|
-------------------------------|-------------------------------|

                                                                
-------------------------------|-------------------------------|
--12----10---------------------|-------------------------------|
-----------13----12------------|-------------------------------|
-----------------------13------|--2-----2--2-----2-----2-------|
-------------------------------|-------------------------------|

                                                                
-------------------------------|-------------------------------|
-------------------------------|-------------------------------|
-------------------------------|-------------------------------|
--2-----2--2-----2-----2-------|--2-----2--2-----2-----2-------|
-------------------------------|-------------------------------|

                                                                
-------------------------------|-------------------------------|
-------------------------------|-------------------------------|
-------------------------------|-------------------------------|
--2-----2--2-----2-----2-------|--3-----3--3-----3-----3-------|
-------------------------------|-------------------------------|

                                                                
-------------------------------|-------------------------------|
-------------------------------|-------------------------------|
-------------------------------|-------------------------------|
--3-----3--3-----3-----3-------|--4-----4--4-----4-----4-------|
-------------------------------|-------------------------------|

                                                                
-------------------------------|-------------------------------|
-------------------------------|-------------------------------|
-------------------------------|-------------------------------|
--4-----4--4-----4-----4-------|--2-----2--2-----2-----2-------|
-------------------------------|-------------------------------|

                                                                
-------------------------------|-------------------------------|
-------------------------------|-------------------------------|
-------------------------------|-------------------------------|
--2-----2--2-----2-----2-------|--2-----2--2-----2-----2-------|
-------------------------------|-------------------------------|

                                                                
-------------------------------|-------------------------------|
-------------------------------|-------------------------------|
-------------------------------|-------------------------------|
--2-----2--2-----2-----2-------|--6-----6--6-----6-----6-------|
-------------------------------|-------------------------------|

                                                                
-------------------------------|-------------------------------|
-------------------------------|-------------------------------|
-------------------------------|-------------------------------|
--6-----6--6-----6-----6-------|--1-----1--1-----1-----1-------|
-------------------------------|-------------------------------|

                                                                
-------------------------------|-------------------------------|
-------------------------------|--------4--------4-------------|
-------------------------------|-------------------------------|
--1-----1--1-----1-----1-------|--2--------2-----------2-------|
-------------------------------|-------------------------------|

                                                                
-------------------------------|-------------------------------|
--4--------------4-------------|--------4--------4-------------|
-------------------------------|-------------------------------|
--------2--2-----------2-------|--2--------2-----------2-------|
-------------------------------|-------------------------------|

                                                                
-------------------------------|-------------------------------|
--4--------------4-------------|--------5--------5-------------|
-------------------------------|-------------------------------|
--------2--2-----------2-------|--3--------3-----------3-------|
-------------------------------|-------------------------------|

                                                                
-------------------------------|-------------------------------|
--5--------------5-------------|--------6--------6-------------|
-------------------------------|-------------------------------|
--------3--3-----------3-------|--4--------4-----------4-------|
-------------------------------|-------------------------------|

                                                                
-------------------------------|-------------------------------|
--6--------------6-------------|-------------------------------|
-------------------------------|--------5--------5-------------|
--------4--4-----------4-------|--3--------3-----------3-------|
-------------------------------|-------------------------------|

                                                                
-------------------------------|-------------------------------|
-------------------------------|-------------------------------|
--5--------------5-------------|-------------------------------|
--------3--3-----------3-------|--------6--------6-------------|
-------------------------------|--4--------4-----------4-------|

                                                                
-------------------------------|-------------------------------|
-------------------------------|-------------------------------|
-------------------------------|--------8--------8-------------|
--6--------------6-------------|--6--------6-----------6-------|
--------4--4-----------4-------|-------------------------------|

                                                                
-------------------------------|-------------------------------|
-------------------------------|-------------------------------|
--8--------------8-------------|--------12-------12------------|
--------6--6-----------6-------|--10-------10----------10------|
-------------------------------|-------------------------------|

                                                                
-------------------------------|-------------------------------|
--12----10---------------------|-------------------------------|
-----------13----12------------|-------------------------------|
-----------------------13------|--------3--3.----------3.------|
-------------------------------|-------------------------------|

                                                                
-------------------------------|-------------------------------|
-------------------------------|-------------------------------|
-------------------------------|-------------------------------|
--------3--3.----------3.------|-------------------------------|
-------------------------------|--------4--4.----------4.------|

                                                                
-------------------------------|-------------------------------|
-------------------------------|-------------------------------|
-------------------------------|-------------------------------|
-------------------------------|--------6--6.----------6.------|
--------4--4.----------4.------|-------------------------------|

                                                                
-------------------------------|-------------------------------|
-------------------------------|-------------------------------|
-------------------------------|-------------------------------|
--------6--6.----------6.------|-------------------------------|
-------------------------------|--------3--3.----------3.------|

                                                                
-------------------------------|-------------------------------|
-------------------------------|-------------------------------|
-------------------------------|-------------------------------|
-------------------------------|--------3--3.----------3.------|
--------3--3.----------3.------|-------------------------------|

                                                                
-------------------------------|-------------------------------|
-------------------------------|-------------------------------|
-------------------------------|-------------------------------|
--------3--3.----------3.------|-------------------------------|
-------------------------------|--------4--4.----------4.------|

                                                                
-------------------------------|-------------------------------|
-------------------------------|-------------------------------|
-------------------------------|-------------------------------|
-------------------------------|--------6--6.----------6.------|
--------4--4.----------4.------|-------------------------------|

                                                                
-------------------------------|-------------------------------|
-------------------------------|-------------------------------|
-------------------------------|-------------------------------|
--------6--6.----------6.------|-------------------------------|
-------------------------------|--------3--3.----------3.------|

                                                                
-------------------------------|-------------------------------|
-------------------------------|-------------------------------|
-------------------------------|--------5--------5-------------|
-------------------------------|--3--------3.----------3-------|
--------3--3.----------3.------|-------------------------------|

                                                                
-------------------------------|-------------------------------|
-------------------------------|-------------------------------|
--5--------------5-------------|-------------------------------|
--------3--3.----------3-------|--------6--------6-------------|
-------------------------------|--4--------4.----------4-------|

                                                                
-------------------------------|-------------------------------|
-------------------------------|-------------------------------|
-------------------------------|--------8--------8-------------|
--6--------------6-------------|--6--------6-----------6-------|
--------4--4-----------4-------|-------------------------------|

                                                                
-------------------------------|-------------------------------|
-------------------------------|-------------------------------|
--8--------------8-------------|--------12-------12------------|
--------6--6-----------6-------|--10-------10----------10------|
-------------------------------|-------------------------------|

                                                                
-------------------------------|-------------------------------|
--12----10---------------------|-------------------------------|
-----------13----12------------|-------------------------------|
-----------------------13------|--2-----2--2-----2-----2-------|
-------------------------------|-------------------------------|

                                                                
-------------------------------|-------------------------------|
-------------------------------|-------------------------------|
-------------------------------|-------------------------------|
--2-----2--2-----2-----2-------|--2-----2--2-----2-----2-------|
-------------------------------|-------------------------------|

                                                                
-------------------------------|-------------------------------|
-------------------------------|-------------------------------|
-------------------------------|-------------------------------|
--2-----2--2-----2-----2-------|--3-----3--3-----3-----3-------|
-------------------------------|-------------------------------|

                                                                
-------------------------------|-------------------------------|
-------------------------------|-------------------------------|
-------------------------------|-------------------------------|
--3-----3--3-----3-----3-------|--4-----4--4-----4-----4-------|
-------------------------------|-------------------------------|

                                                                
-------------------------------|-------------------------------|
-------------------------------|-------------------------------|
-------------------------------|-------------------------------|
--4-----4--4-----4-----4-------|--2-----2--2-----2-----2-------|
-------------------------------|-------------------------------|

                                                                
-------------------------------|-------------------------------|
-------------------------------|-------------------------------|
-------------------------------|-------------------------------|
--2-----2--2-----2-----2-------|--2-----2--2-----2-----2-------|
-------------------------------|-------------------------------|

                                                                
-------------------------------|-------------------------------|
-------------------------------|-------------------------------|
-------------------------------|-------------------------------|
--2-----2--2-----2-----2-------|--6-----6--6-----6-----6-------|
-------------------------------|-------------------------------|

                                                                
-------------------------------|-------------------------------|
-------------------------------|-------------------------------|
-------------------------------|-------------------------------|
--6-----6--6-----6-----6-------|--1-----1--1-----1-----1-------|
-------------------------------|-------------------------------|

                                                                
-------------------------------|-------------------------------|
-------------------------------|--------4--------4-------------|
-------------------------------|-------------------------------|
--1-----1--1-----1-----1-------|--2--------2-----------2-------|
-------------------------------|-------------------------------|

                                                                
-------------------------------|-------------------------------|
--4--------------4-------------|--------4--------4-------------|
-------------------------------|-------------------------------|
--------2--2-----------2-------|--2--------2-----------2-------|
-------------------------------|-------------------------------|

                                                                
-------------------------------|-------------------------------|
--4--------------4-------------|--------5--------5-------------|
-------------------------------|-------------------------------|
--------2--2-----------2-------|--3--------3-----------3-------|
-------------------------------|-------------------------------|

                                                                
-------------------------------|-------------------------------|
--5--------------5-------------|--------6--------6-------------|
-------------------------------|-------------------------------|
--------3--3-----------3-------|--4--------4-----------4-------|
-------------------------------|-------------------------------|

                                                                
-------------------------------|-------------------------------|
--6--------------6-------------|--------4--------4-------------|
-------------------------------|-------------------------------|
--------4--4-----------4-------|--2--------2-----------2-------|
-------------------------------|-------------------------------|

                                                                
-------------------------------|-------------------------------|
--4--------------4-------------|--------4--------4-------------|
-------------------------------|-------------------------------|
--------2--2-----------2-------|--2--------2-----------2-------|
-------------------------------|-------------------------------|

                                                                
-------------------------------|-------------------------------|
--4--------------4-------------|--------8--------8-------------|
-------------------------------|-------------------------------|
--------2--2-----------2-------|--6--------6-----------6-------|
-------------------------------|-------------------------------|

                                                                
-------------------------------|-------------------------------|
--8--------------8-------------|--------3--------3-------------|
-------------------------------|-------------------------------|
--------6--6-----------6-------|--1--------1-----------1-------|
-------------------------------|-------------------------------|

                                                                
-------------------------------|-------------------------------|
--3--------------3-------------|--------4--------4-------------|
-------------------------------|-------------------------------|
--------1--1-----------1-------|--2--------2-----------2-------|
-------------------------------|-------------------------------|

                                                                
-------------------------------|-------------------------------|
--4--------------4-------------|--------4--------4-------------|
-------------------------------|-------------------------------|
--------2--2-----------2-------|--2--------2-----------2-------|
-------------------------------|-------------------------------|

                                                                
-------------------------------|-------------------------------|
--4--------------4-------------|--------5--------5-------------|
-------------------------------|-------------------------------|
--------2--2-----------2-------|--3--------3-----------3-------|
-------------------------------|-------------------------------|

                                                                
-------------------------------|-------------------------------|
--5--------------5-------------|--------6--------6-------------|
-------------------------------|-------------------------------|
--------3--3-----------3-------|--4--------4-----------4-------|
-------------------------------|-------------------------------|

                                                                
-------------------------------|-------------------------------|
--6--------------6-------------|--------4--------4-------------|
-------------------------------|-------------------------------|
--------4--4-----------4-------|--2--------2-----------2-------|
-------------------------------|-------------------------------|

                                                                
-------------------------------|-------------------------------|
--4--------------4-------------|--------4--------4-------------|
-------------------------------|-------------------------------|
--------2--2-----------2-------|--2--------2-----------2-------|
-------------------------------|-------------------------------|

                                                                
-------------------------------|-------------------------------|
--4--------------4-------------|--------8--------8-------------|
-------------------------------|-------------------------------|
--------2--2-----------2-------|--6--------6-----------6-------|
-------------------------------|-------------------------------|

                                                                
-------------------------------|-------------------------------|
--8--------------8-------------|--------3--------3-------------|
-------------------------------|-------------------------------|
--------6--6-----------6-------|--1--------1-----------1-------|
-------------------------------|-------------------------------|

                                  S     P  S     P     S        
-------------------------------|-------------------------------|
--3--------------3-------------|--------4--------4-------------|
-------------------------------|-------------------------------|
--------1--1-----------1-------|--2--------2-----------2-------|
-------------------------------|-------------------------------|

  P     P  S     P     S  P       S     P  S     P     S        
-------------------------------|-------------------------------|
--4.----4--------4--------4----|--------4--------4-------------|
-------------------------------|-------------------------------|
-----------2-----------2-------|--2--------2-----------2-------|
-------------------------------|-------------------------------|

  P     P  S     P     S  P       S     P  S     P     S        
-------------------------------|-------------------------------|
--4.----4--------4--------4----|--------5--------5-------------|
-------------------------------|-------------------------------|
-----------2-----------2-------|--3--------3-----------3-------|
-------------------------------|-------------------------------|

  P     P  S     P     S  P       S     P  S     P     S        
-------------------------------|-------------------------------|
--5.----5--------5--------5----|--------6--------6-------------|
-------------------------------|-------------------------------|
-----------3-----------3-------|--4--------4-----------4-------|
-------------------------------|-------------------------------|

  P     P  S     P     S  P       S     P  S     P     S        
-------------------------------|-------------------------------|
--6.----6--------6--------6----|--------4--------4-------------|
-------------------------------|-------------------------------|
-----------4-----------4-------|--2--------2-----------2-------|
-------------------------------|-------------------------------|

  P     P  S     P     S  P       S     P  S     P     S        
-------------------------------|-------------------------------|
--4.----4--------4--------4----|--------4--------4-------------|
-------------------------------|-------------------------------|
-----------2-----------2-------|--2--------2-----------2-------|
-------------------------------|-------------------------------|

  P     P  S     P     S  P       S     P  S     P     S        
-------------------------------|-------------------------------|
--4.----4--------4--------4----|--------8--------8-------------|
-------------------------------|-------------------------------|
-----------2-----------2-------|--6--------6-----------6-------|
-------------------------------|-------------------------------|

  P     P  S     P     S  P       S     P  S     P     S        
-------------------------------|-------------------------------|
--8.----8--------8--------8----|--------3--------3-------------|
-------------------------------|-------------------------------|
-----------6-----------6-------|--1--------1-----------1-------|
-------------------------------|-------------------------------|

  P     P  S     P     S  P
-------------------------------|-------------------------------|
--3.----3--------3--------3----|-------------------------------|
-------------------------------|--------4--------4-------------|
-----------1-----------1-------|-------------------------------|
-------------------------------|--2--------2-----------2-------|


-------------------------------|-------------------------------|
-------------------------------|-------------------------------|
--4--------------4-------------|--------4--------4-------------|
-------------------------------|-------------------------------|
--------2--2-----------2--2----|--2--------2-----------2-------|


-------------------------------|-------------------------------|
-------------------------------|-------------------------------|
--4--------------4-------------|--------4--------4-------------|
-------------------------------|-------------------------------|
--------2--2-----------2--2----|--2--------2-----------2-------|


-------------------------------|-------------------------------|
-------------------------------|-------------------------------|
--4--------------4-------------|--------4--------4-------------|
-------------------------------|-------------------------------|
--------2--2-----------2--2----|--2--------2-----------2-------|


-------------------------------|----||
-------------------------------|----||
--4--------------4-------------|----||
-------------------------------|----||
--------2--2-----------2--2----|----||

comments
We did not receive enough feedback on this tab! Please rate:
print report bad tab
1 2 3 4 5
I want to post or [tab]
guest
You may want to rate the tab now too:
select rating
Please do not post tabs as comments. Select "correction" instead!