Oops, an error
Loading. Please wait.

Such Creatures Eixist - Lindsay Marie Tab

147 views 1 this week
no commentswrite comment
1 2 3 4 5
please rate
add to favorites launch autoscroll
font size
0
reset
Autoscroll
+/-
esc
set tempo
stop
Contributor
Difficulty
Tuning
intermediate
C G C F A D
WARNING: You are trying to view
                                    content from Ultimate-Guitar.com
                                    in an unauthorized application,
                                    which is prohibited.

                                    Please use an official Ultimate
                                    Guitar Tabs application for iPhone,
                                    iPad or Android to access legitimate
                                    chords, guitar, bass, and drum tabs
                                    from Ultimate-Guitar.com database.

                                    Type "ultimate guitar tabs" in Apple
                                    App Store's or Android Market's
                                    search to find the application.
 Lindsay Marie                                           


Guitar 1
     S S S S S S S S S S S S S  S S S  
D||-----------------------------------|
A||-----------------------------------|
F||-----------------------------------|
C||------7-0-------------8-7----------|
G||----------8-7-5-0---------8-10-7-8-|
C||--8---------------5----------------|


  T T T T T T T T T T T T T T T T T T T T T T T T T T T T T T T  
----------------------------------------------------------------|
----------------------------------------------------------------|
----------------------------------------------------------------|
----------------------------------------------------------------|
--0-0-0-------0-0-0-------0-0-0-------0-0-0---------------------|
--0-0-0-------0-0-0-------0-0-0-------0-0-0-------0---0---0---0-|


  T T T T T T T T T T T T T T T T T T T T T T T T T T T T T T T  
----------------------------------------------------------------|
----------------------------------------------------------------|
----------------------------------------------------------------|
----------------------------------------------------------------|
--0-0-0-------0-0-0-------0-0-0-------0-0-0---------------------|
--0-0-0-------0-0-0-------0-0-0-------0-0-0-------0---0---0---0-|


  S S S S S S S S S S S S S S S S  
----------------------------------|
----------------------------------|
----------------------------------|
------7-0-------------------------|
----------8-7-5-0-----4-5-1-4-0-1-|
--8---------------5---------------|


  T T T T T T T T T T T T T T T T T T T T T T T T T T T T T T T  
----------------------------------------------------------------|
----------------------------------------------------------------|
----------------------------------------------------------------|
----------------------------------------------------------------|
--0-0-0-------0-0-0-------0-0-0-------0-0-0---------------------|
--0-0-0-------0-0-0-------0-0-0-------0-0-0-------0---0---0---0-|


  T T T T T T T T T T T T T T T T T T T T T T T T T T T T T T T  
----------------------------------------------------------------|
----------------------------------------------------------------|
----------------------------------------------------------------|
----------------------------------------------------------------|
--0-0-0-------0-0-0-------0-0-0-------0-0-0---------------------|
--0-0-0-------0-0-0-------0-0-0-------0-0-0-------0---0---0---0-|


  S S S S S S S S S S S S S S S S    S S S S S S S S S S S S S S S S  
----------------------------------|--------------------------6-5-----|
----------------------------------|------------------------------6---|
----------------------------------|--------------------------------7-|
----------------------------------|----------------------------------|
--8---8-8-----------------------5-|------5-5-------------------------|
--8---8-8-----------------------5-|------5-5-------------------------|


  S S S S S S  S S T T S  S S S S  S S    S S S S S S  S S T T S  S S S S  S S  
---------------------------------------|---------------------------------------|
---------------------------------------|---------------------------------------|
---------------------------------------|---------------------------------------|
-------------------7-8-7---------------|-------------------7-8-7---------------|
------7---8---10---------10-8-7-8------|------7---8---10---------10-8-7-8----8-|
----0---0---0----0----------------10-0-|----0---0---0----0----------------10-8-|


  S S S S S S S S S S S S S S S S    S S S S S S S S S S S S S S S S  
----------------------------------|--------------------------6-5-----|
----------------------------------|------------------------------6---|
----------------------------------|--------------------------------7-|
----------------------------------|----------------------------------|
------8-8-----------------------5-|------5-5-------------------------|
------8-8-----------------------5-|------5-5-------------------------|


  S S S S S S  S S T T S  S S S S  S S    S S S S S S  S S T T S  S S S S  S S  
---------------------------------------|---------------------------------------|
---------------------------------------|---------------------------------------|
---------------------------------------|---------------------------------------|
-------------------7-8-7---------------|-------------------7-8-7---------------|
------7---8---10---------10-8-7-8------|------7---8---10---------10-8-7-8------|
----0---0---0----0----------------10-0-|----0---0---0----0----------------10-8-|


  S S  S S S  S S  S S S  S S  S S S  S    S S S S S S S S S S S S S S S S  
----------------------------------------|----------------------------------|
----------------------------------------|----------------------------------|
----------------------------------------|----------------------------------|
----------------------------------------|----------------------------------|
------12---8-12---12---8-12---12---8-12-|------8---5-8---8---5-8---8---5-8-|
----8----8------8----8------8----8------|--5-5---5-----5---5-----5---5-----|


  >                                                                             
  S S S S S S  S S T T S  S S S S  S S    S S S S S S  S S T T S  S S S S  S S  
---------------------------------------|---------------------------------------|
---------------------------------------|---------------------------------------|
---------------------------------------|---------------------------------------|
-------------------7-8-7---------------|-------------------7-8-7---------------|
------7---8---10---------10-8-7-8------|------7---8---10---------10-8-7-8------|
--0-0---0---0----0----------------10-0-|----0---0---0----0----------------10-8-|


  S S  S S S  S S  S S S  S S  S S S  S    S S S S S S S S S S S S S S S S  
----------------------------------------|----------------------------------|
----------------------------------------|----------------------------------|
----------------------------------------|----------------------------------|
----------------------------------------|----------------------------------|
------12---8-12---12---8-12---12---8-12-|------8---5-8---8---5-8---8---5-8-|
----8----8------8----8------8----8------|--5-5---5-----5---5-----5---5-----|


  >                                                                             
  S S S S S S  S S T T S  S S S S  S S    S S S S S S  S S T T S  S S S S  S S  
---------------------------------------|---------------------------------------|
---------------------------------------|---------------------------------------|
---------------------------------------|---------------------------------------|
-------------------7-8-7---------------|-------------------7-8-7---------------|
------7---8---10---------10-8-7-8------|------7---8---10---------10-8-7-8------|
--0-0---0---0----0----------------10-0-|----0---0---0----0----------------10-8-|


  S S S S S S S S S S S S S S S S    S S S S S S S S S S S S S S S S  
----------------------------------|----------------------------------|
----------------------------------|----------------------------------|
----------------------------------|----------------------------------|
----7-7---7---7-7-7-7-7-7-7-7-7-8-|----8-8---8---8-8-8-8-8-8-3-2---3-|
----8-8---8---8-8-8-8-8-8-8-8-8-5-|----5-5---5---5-5-5-5-5-5-----3-0-|
----8-8---8---8-8-8-8-8-8-8-8-8-5-|----5-5---5---5-5-5-5-5-5-------0-|


  S S S S S S S S S S S S S S S S    S S S S S S S S S S S S S S S S  
----------------------------------|----------------------------------|
----------------------------------|----------------------------------|
----------------------------------|----------------------------------|
----3-3---3---3-3-3-3-3-3-3-3-3-7-|----7-7---7---7-7-7-7-7-7-7-7-7-7-|
----0-0---0---0-0-0-0-0-0-0-0-0-3-|----3-3---3---3-3-3-3-3-3-3-3-3-8-|
----0-0---0---0-0-0-0-0-0-0-0-0-3-|----3-3---3---3-3-3-3-3-3-3-3-3-8-|


  S S S S S S S S S S S S S S S S    S S S S S S S S S S S S S S S S  
----------------------------------|----------------------------------|
----------------------------------|----------------------------------|
----------------------------------|----------------------------------|
----7-7---7---7-7-7-7-7-7-7-7-7-8-|----8-8---8---8-8-8-8-8-8-3-2---3-|
----8-8---8---8-8-8-8-8-8-8-8-8-5-|----5-5---5---5-5-5-5-5-5-----3-0-|
----8-8---8---8-8-8-8-8-8-8-8-8-5-|----5-5---5---5-5-5-5-5-5-------0-|


  S S S S S S S S S S S S S S S S    S S S S S S S S S S S S S S S S  
----------------------------------|----------------------------------|
----------------------------------|----------------------------------|
----------------------------------|----------------------------------|
----3-3---3---3-3-3-3-3-3-3-3-3-7-|----7-7---7---7-7-7-7-7-7-7-7-7-7-|
----0-0---0---0-0-0-0-0-0-0-0-0-3-|----3-3---3---3-3-3-3-3-3-3-3-3-8-|
----0-0---0---0-0-0-0-0-0-0-0-0-3-|----3-3---3---3-3-3-3-3-3-3-3-3-8-|


  S S S S S S S S S S S S S S S S    S S S S S S S S S S S S S S S S  
----------------------------------|----------------------------------|
----------------------------------|----------------------------------|
----------------------------------|----------------------------------|
----7-7---7---7-7-7-7-7-7-7-7-7---|--------------------------3-2-----|
----8-8---8---8-8-8-8-8-8-8-8-8-5-|----5-5---5---5-5-5-5-5-5-----3-0-|
----8-8---8---8-8-8-8-8-8-8-8-8-5-|----5-5---5---5-5-5-5-5-5-------0-|


  S S S S S S S S S S S S S S S  S    S  S  S S  S S  S  S  S  S  S  S  S  S  S S  
-----------------------------------|----------------------------------------------|
-----------------------------------|----------------------------------------------|
-----------------------------------|----------------------------------------------|
--------------------------------14-|----14-14---14---14-14-14-14-14-14-14-14-14-7-|
----0-0---0---0-0-0-0-0-0-0-0-0-10-|----10-10---10---10-10-10-10-10-10-10-10-10-8-|
----0-0---0---0-0-0-0-0-0-0-0-0-10-|----10-10---10---10-10-10-10-10-10-10-10-10-8-|


  S S S S S S S S S S S S S S S S    S S S S S S S S S S S S S S S S  
----------------------------------|----------------------------------|
----------------------------------|----------------------------------|
----------------------------------|----------------------------------|
----7-7---7---7-7-7-7-7-7-7-7-7---|--------------------------3-2-----|
----8-8---8---8-8-8-8-8-8-8-8-8-5-|----5-5---5---5-5-5-5-5-5-----3-0-|
----8-8---8---8-8-8-8-8-8-8-8-8-5-|----5-5---5---5-5-5-5-5-5-------0-|


  S S S S S S S S S S S S S S S  S    S  S  S S  S S  S  S  S  S  S  S  S  S  S  S       
-----------------------------------|-----------------------------------------------|----|
-----------------------------------|-----------------------------------------------|----|
-----------------------------------|-----------------------------------------------|----|
--------------------------------14-|----14-14---14---14-14-14-14-14-14-14-14-14-14-|----|
----0-0---0---0-0-0-0-0-0-0-0-0-10-|----10-10---10---10-10-10-10-10-10-10-10-10-10-|----|
----0-0---0---0-0-0-0-0-0-0-0-0-10-|----10-10---10---10-10-10-10-10-10-10-10-10-10-|----|


  E  E  E          E  E  E     S S S S S S S S S S S S S S S S    S S S S    E  E  E        
-----------|----|-----------|----------------------------------|----------|-----------|----|
-----------|----|-----------|----------------------------------|----------|-----------|----|
-----------|----|-----------|----------------------------------|----------|-----------|----|
-----------|----|-----------|--------------7-0-----------------|----------|-----------|----|
--0--1--0--|----|--0--1--0--|------------------8-7-5-0-----4-5-|--1-4-0-1-|--0--1--0--|----|
--0--1--0--|----|--0--1--0--|----------8---------------5-------|----------|--0--1--0--|----|


  E  E  E  E  E  T T T T T T T T T S T    S S S S S S T E     T T T T T T T T T  
---------------------------------------|-------------------|--------------------|
---------------------------------------|-------------------|--------------------|
---------------------------------------|-------------------|--------------------|
---------------------------------------|-------------------|--------------------|
--0--1--0----------------------0-0-0---|----0-----0-----1--|--0-0-0-0-0-0-0-0-0-|
--0--1--0----------------------0-0-0---|----0-----0-----1--|--0-0-0-0-0-0-0-0-0-|


  T T T T T T T T T    T T T T T T T T T    T T T T T T T T T       
--------------------|--------------------|--------------------|----|
--------------------|--------------------|--------------------|----|
--------------------|--------------------|--------------------|----|
--------------------|--------------------|--------------------|----|
--0-0-0-0-0-0-0-0-0-|--0-0-0-0-0-0-0-0-0-|--0-0-0-0-0-0-0-0-0-|----|
--0-0-0-0-0-0-0-0-0-|--0-0-0-0-0-0-0-0-0-|--0-0-0-0-0-0-0-0-0-|----|


  T T T T T T T T T T T T T T T T T T T T T T T T T T T T T T  
--------------------------------------------------------------|
--------------------------------------------------------------|
--------------------------------------------------------------|
--------------------------------------------------------------|
--0-0-0-0-0-0-0-0-0-------------------0-0-0-------0-0-----0-0-|
--0-0-0-0-0-0-0-0-0-------------------0-0-0-------0-0-----0-0-|


  T T T T T T T T T T T T T T T T T T T T T T T T T T T T T T T  
----------------------------------------------------------------|
----------------------------------------------------------------|
----------------------------------------------------------------|
----------------------------------------------------------------|
--0-0-0-0-0-0-0-0-0-----------0-0-0-----0-----0---0-----0-----0-|
--0-0-0-0-0-0-0-0-0-----------0-0-0-----0-----0---0-----0-----0-|


  T T T T T T T T T T T T T T T T T T T T T T T T T T T T T T  
--------------------------------------------------------------|
--------------------------------------------------------------|
--------------------------------------------------------------|
--------------------------------------------------------------|
--0-0-0-0-0-0-0-0-0-------------------0-0-0-------0-0-----0-0-|
--0-0-0-0-0-0-0-0-0-------------------0-0-0-------0-0-----0-0-|


  T T T T T T T T T T T T T T T T T T T T T T T T T T T T T T T  
----------------------------------------------------------------|
----------------------------------------------------------------|
----------------------------------------------------------------|
----------------------------------------------------------------|
--0-0-0-0-0-0-0-0-0-----------0-0-0-----0-----0---0-----0-----0-|
--0-0-0-0-0-0-0-0-0-----------0-0-0-----0-----0---0-----0-----0-|


  T T T T T T T T T T T T T T T T T T T T T T T T T T T T T T  
--------------------------------------------------------------|
--------------------------------------------------------------|
--------------------------------------------------------------|
--------------------------------------------------------------|
--0-0-0-0-0-0-0-0-0-------------------0-0-0-------0-0-----0-0-|
--0-0-0-0-0-0-0-0-0-------------------0-0-0-------0-0-----0-0-|


  T T T T T T T T T T T T T T T T T T T T T T T T T T T T T T T  
----------------------------------------------------------------|
----------------------------------------------------------------|
----------------------------------------------------------------|
----------------------------------------------------------------|
--0-0-0-0-0-0-0-0-0-----------0-0-0-----0-----0---0-----0-----0-|
--0-0-0-0-0-0-0-0-0-----------0-0-0-----0-----0---1-----1-----1-|


  T T T T T T T T T T T T T T T T T T T T T T T T T T T T T T  
--------------------------------------------------------------|
--------------------------------------------------------------|
--------------------------------------------------------------|
--------------------------------------------------------------|
--0-0-0-0-0-0-0-0-0-------------------0-0-0-------0-0-----0-0-|
--0-0-0-0-0-0-0-0-0-------------------0-0-0-------0-0-----0-0-|


  T T T T T T T T T T T T T T T T T T T T T T T T T T T T T T T    T T T T T T T T T  
----------------------------------------------------------------|--------------------|
----------------------------------------------------------------|--------------------|
----------------------------------------------------------------|--------------------|
----------------------------------------------------------------|--------------------|
--0-0-0-0-0-0-0-0-0-----------0-0-0-----0-----0---0-----0-----0-|--0-----0-----0---0-|
--0-0-0-0-0-0-0-0-0-----------0-0-0-----0-----0---1-----1-----1-|--1-----1-----1---1-|


  S S S S S S S S S S S S S  S S S    S S S  S S  S S  S S S S  S  S  S S  S  
-----------------------------------|-----------------------------------------|
-----------------------------------|-----------------------------------------|
-----------------------------------|-----------------------------------------|
------7-0-------------8-7----------|-------------------------8p-7-10p-7-8p-7-|
----------8-7-5-0---------8-10-7-8-|------7p-0-8p-0-7p-0---------------------|
--8---------------5----------------|--0-0----------------5-5-----------------|


  S S  S S  S   S   S S  S  S  S  S  S   S   S    S S S  S S  S S  S S S S  S  S  S S  S  
-----------------------------------------------|-----------------------------------------|
-----------------------------------------------|-----------------------------------------|
-----------------------------------------------|-----------------------------------------|
------10---10h-12p-10---------12----12h-14h-15-|-------------------------8p-7-10p-7-8p-7-|
-----------------------------------------------|------7p-0-8p-0-7p-0---------------------|
--8-8----8--------------10-10----10------------|--0-0----------------5-5-----------------|


  S S  S S  S   S   S S  S  S  S  S  S   S   S    S S S  S S  S S  S S S S  S  S  S S  S  
-----------------------------------------------|-----------------------------------------|
-----------------------------------------------|-----------------------------------------|
-----------------------------------------------|-----------------------------------------|
------10---10h-12p-10---------12----12h-14h-15-|-------------------------8p-7-10p-7-8p-7-|
-----------------------------------------------|------7p-0-8p-0-7p-0---------------------|
--8-8----8--------------10-10----10------------|--0-0----------------5-5-----------------|


  S S  S S  S   S   S S  S  S  S  S  S   S   S    S S S  S S  S S  S S S S  S  S  S S  S  
-----------------------------------------------|-----------------------------------------|
-----------------------------------------------|-----------------------------------------|
-----------------------------------------------|-----------------------------------------|
------10---10h-12p-10---------12----12h-14h-15-|-------------------------8p-7-10p-7-8p-7-|
-----------------------------------------------|------7p-0-8p-0-7p-0---------------------|
--8-8----8--------------10-10----10------------|--0-0----------------5-5-----------------|


  S S  S S  S   S   S S  S  S  S  S  S   S   S    S S S S S S S S S S S S S S S S  
-----------------------------------------------|----------------------------------|
-----------------------------------------------|----------------------------------|
-----------------------------------------------|----------------------------------|
------10---10h-12p-10---------12----12h-14h-15-|----------------------------------|
-----------------------------------------------|--0-0-0-0-0-0-0-0-0-0-0-0-0-0-0-0-|
--8-8----8--------------10-10----10------------|--0-0-0-0-0-0-0-0-0-0-0-0-0-0-0-0-|


                                     > > > > > > > > > > > > > > > >  
  S S S S S S S S S S S S S S S S    S S S S S S S S S S S S S S S S  
----------------------------------|----------------------------------|
----------------------------------|----------------------------------|
----------------------------------|----------------------------------|
----------------------------------|----------------------------------|
--5-5-5-5-5-5-5-5-8-8-8-8-8-8-8-8-|----------------------------------|
--5-5-5-5-5-5-5-5-8-8-8-8-8-8-8-8-|--0-0-0-0-0-0-0-0-0-0-0-0-0-0-0-0-|


  > > > > > > > > > > > > > > > >       
  S S S S S S S S S S S S S S S S       
----------------------------------|----|
----------------------------------|----|
----------------------------------|----|
----------------------------------|----|
----------------------------------|----|
--5-5-5-5-5-5-5-5-8-8-8-8-8-8-8-8-|----|


  T T T T T T T T T T T T T T T T T T T T T T T T T T T T T T T  
----------------------------------------------------------------|
----------------------------------------------------------------|
----------------------------------------------------------------|
----------------------------------------------------------------|
--0-0-0-----------0-0-0---0-0-0---0-0-0-----------0-0-0---0-0-0-|
--0-0-0-----------0-0-0---0-0-0---0-0-0-----------0-0-0---0-0-0-|


  T T T T T T T T T T T T T T T T T T T T T T T T T T T T T T T  
----------------------------------------------------------------|
----------------------------------------------------------------|
----------------------------------------------------------------|
----------------------------------------------------------------|
--0-0-0-----------0-0-0---0-0-0---0-0-0-----------0-0-0---0-0-0-|
--0-0-0-----------0-0-0---0-0-0---0-0-0-----------0-0-0---0-0-0-|


  T T T T T T T T T T T T T T T T T T T T T T T T T T T T T T T  
----------------------------------------------------------------|
----------------------------------------------------------------|
----------------------------------------------------------------|
----------------------------------------------------------------|
--0-0-0-----------0-0-0---0-0-0---0-0-0-----------0-0-0---0-0-0-|
--0-0-0-----------0-0-0---0-0-0---0-0-0-----------0-0-0---0-0-0-|


  T T T T T T T T T T T T T T T T T T T T T T T T T T T T T T T    T T T  
----------------------------------------------------------------|--------|
----------------------------------------------------------------|--------|
----------------------------------------------------------------|--------|
----------------------------------------------------------------|--------|
--0-0-0-----------0-0-0---0-0-0---0-0-0-----------0-0-0---0-0-0-|--0-0-0-|
--0-0-0-----------0-0-0---0-0-0---0-0-0-----------0-0-0---0-0-0-|--0-0-0-|


  T T T T T T T T T T T T T T T T T T T T T T T T T T T  
--------------------------------------------------------|
--------------------------------------------------------|
--------------------------------------------------------|
--------------------------------------------------------|
--0-0-0---0-0-0---0-0-0-----------0-0-0---0-0-0---0-0-0-|
--0-0-0---0-0-0---0-0-0-----------0-0-0---0-0-0---0-0-0-|


  T T T T T T T T T T T T T T T T T T T T T T T T T T T  
--------------------------------------------------------|
--------------------------------------------------------|
--------------------------------------------------------|
--------------------------------------------------------|
--0-0-0---0-0-0---0-0-0-----------0-0-0---0-0-0---0-0-0-|
--0-0-0---0-0-0---0-0-0-----------0-0-0---0-0-0---0-0-0-|


  T T T T T T T T T T T T T T T T T T T T T T T T T T T  
--------------------------------------------------------|
--------------------------------------------------------|
--------------------------------------------------------|
--------------------------------------------------------|
--0-0-0---0-0-0---0-0-0-----------0-0-0---0-0-0---0-0-0-|
--0-0-0---0-0-0---0-0-0-----------0-0-0---0-0-0---0-0-0-|


  T T T T T T T T T T T T T T T T T T T T T T T T T T T  
--------------------------------------------------------|
--------------------------------------------------------|
--------------------------------------------------------|
--------------------------------------------------------|
--0-0-0---0-0-0---0-0-0-----------0-0-0---0-0-0---0-0-0-|
--0-0-0---0-0-0---0-0-0-----------0-0-0---0-0-0---0-0-0-|


  T T T T T T T T T T T T T T T T T T T T T T T T T T T  
--------------------------------------------------------|
--------------------------------------------------------|
--------------------------------------------------------|
--------------------------------------------------------|
--0-0-0---0-0-0---0-0-0-----------0-0-0---0-0-0---0-0-0-|
--1-1-1---1-1-1---1-1-1-----------1-1-1---1-1-1---1-1-1-|


  T T T T T T T T T T T T T T T T T T T T T T T T T T T  
--------------------------------------------------------|
--------------------------------------------------------|
--------------------------------------------------------|
--------------------------------------------------------|
--0-0-0---0-0-0---0-0-0-----------0-0-0---0-0-0---0-0-0-|
--1-1-1---1-1-1---0-0-0-----------0-0-0---0-0-0---1-1-1-|


  T T T T T T T T T T T T T T T T T T T T T T T T T T T  
--------------------------------------------------------|
--------------------------------------------------------|
--------------------------------------------------------|
--------------------------------------------------------|
--0-0-0---0-0-0---0-0-0-----------0-0-0---0-0-0---0-0-0-|
--1-1-1---1-1-1---1-1-1-----------1-1-1---1-1-1---1-1-1-|


  T T T T T T T T T T T T T T T T T T T T T T T T Q           
-------------------------------------------------------|----||
-------------------------------------------------------|----||
-------------------------------------------------------|----||
-------------------------------------------------------|----||
--0-0-0---0-0-0---0-0-0-----------0-0-0---0-0-0---0----|----||
--1-1-1---1-1-1---0-0-0-----------0-0-0---0-0-0---1----|----||








Guitar 2
      S S  S S  S  S S S S S  S  S  S  S  S  S  
D||--------------------------------------------|
A||--------------------------------------------|
F||--------------------------------------------|
C||-------10-0---------------12-10-------------|
G||------------12-10-8-0-----------12-13-10-12-|
C||--12------------------8---------------------|


  T T T T T T T T T T T T T T T T T T T T T T T T T T T T T T T  
----------------------------------------------------------------|
----------------------------------------------------------------|
----------------------------------------------------------------|
----------------------------------------------------------------|
--0-0-0-------0-0-0-------0-0-0-------0-0-0---------------------|
--0-0-0-------0-0-0-------0-0-0-------0-0-0-------0---0---0---0-|


  T T T T T T T T T T T T T T T T T T T T T T T T T T T T T T T  
----------------------------------------------------------------|
----------------------------------------------------------------|
----------------------------------------------------------------|
----------------------------------------------------------------|
--0-0-0-------0-0-0-------0-0-0-------0-0-0---------------------|
--0-0-0-------0-0-0-------0-0-0-------0-0-0-------0---0---0---0-|


   S S  S S  S  S S S S S S S S S S S  
--------------------------------------|
--------------------------------------|
--------------------------------------|
-------10-0---------------------------|
------------12-10-8-0-----7-8-5-7-4-5-|
--12------------------8---------------|


  T T T T T T T T T T T T T T T T T T T T T T T T T T T T T T T  
----------------------------------------------------------------|
----------------------------------------------------------------|
----------------------------------------------------------------|
----------------------------------------------------------------|
--0-0-0-------0-0-0-------0-0-0-------0-0-0---------------------|
--0-0-0-------0-0-0-------0-0-0-------0-0-0-------0---0---0---0-|


  T T T T T T T T T T T T T T T T T T T T T T T T T T T T T T T  
----------------------------------------------------------------|
----------------------------------------------------------------|
----------------------------------------------------------------|
----------------------------------------------------------------|
--0-0-0-------0-0-0-------0-0-0-------0-0-0---------------------|
--0-0-0-------0-0-0-------0-0-0-------0-0-0-------0---0---0---0-|


  S S S S  S  S  S  S  S  S  S  S  S  S  S S    S S S S  S  S  S  S  S  S  S  S  S  S  S S  
---------------------------------------------|---------------------------------------------|
---------------------------------------------|---------------------------------------------|
----------14-14-14-14-14-14-14-14-14-14-14---|----------10-10-10-10-10-10-10-10-10-10-10---|
---------------------------------------------|---------------------------------------------|
--8---8-8-12-12-12-12-12-12-12-12-12-12-12-5-|------5-5--8--8--8--8--8--8--8--8--8--8--8-0-|
--8---8-8----------------------------------5-|------5-5----------------------------------0-|


  S S S S S S  S S T T S  S S S S  S S    S S S S S S  S S T T S  S S S S  S S  
---------------------------------------|---------------------------------------|
---------------------------------------|---------------------------------------|
---------------------------------------|---------------------------------------|
-------------------7-8-7---------------|-------------------7-8-7---------------|
------7---8---10---------10-8-7-8------|------7---8---10---------10-8-7-8----8-|
----0---0---0----0----------------10-0-|----0---0---0----0----------------10-8-|


  S S S S  S  S  S  S  S  S  S  S  S  S  S S    S S S S  S  S  S  S  S  S  S  S  S  S  S S  
---------------------------------------------|---------------------------------------------|
---------------------------------------------|---------------------------------------------|
----------14-14-14-14-14-14-14-14-14-14-14---|----------10-10-10-10-10-10-10-10-10-10-10---|
---------------------------------------------|---------------------------------------------|
------8-8-12-12-12-12-12-12-12-12-12-12-12-5-|------5-5--8--8--8--8--8--8--8--8--8--8--8-0-|
------8-8----------------------------------5-|------5-5----------------------------------0-|


  S S S S S S  S S T T S  S S S S  S S    S S S S S S  S S T T S  S S S S  S S  
---------------------------------------|---------------------------------------|
---------------------------------------|---------------------------------------|
---------------------------------------|---------------------------------------|
-------------------7-8-7---------------|-------------------7-8-7---------------|
------7---8---10---------10-8-7-8------|------7---8---10---------10-8-7-8------|
----0---0---0----0----------------10-0-|----0---0---0----0----------------10-8-|


  S S  S S S  S S  S S S  S S  S S S  S    S S S S S S S S S S S S S S S S  
----------------------------------------|----------------------------------|
----------------------------------------|----------------------------------|
----------------------------------------|----------------------------------|
----------------------------------------|----------------------------------|
------12---8-12---12---8-12---12---8-12-|------8---5-8---8---5-8---8---5-8-|
----8----8------8----8------8----8------|--5-5---5-----5---5-----5---5-----|


  >                                             
  S S  S S  S S  S S  T  T  S  S  S  S  S  S S  
-----------------------------------------------|
-----------------------------------------------|
-----------------------------------------------|
---------------------10-12-10------------------|
------10---12---13------------13-12-10-12------|
--0-0----0----0----0----------------------14-0-|


  S S  S S  S S  S S  T  T  S  S  S  S  S  S S    S S  S S S  S S  S S S  S S  S S S  S  
-----------------------------------------------|----------------------------------------|
-----------------------------------------------|----------------------------------------|
-----------------------------------------------|----------------------------------------|
---------------------10-12-10------------------|----------------------------------------|
------10---12---13------------13-12-10-12------|------12---8-12---12---8-12---12---8-12-|
----0----0----0----0----------------------14-8-|----8----8------8----8------8----8------|


                                     >                                             
  S S S S S S S S S S S S S S S S    S S  S S  S S  S S  T  T  S  S  S  S  S  S S  
----------------------------------|-----------------------------------------------|
----------------------------------|-----------------------------------------------|
----------------------------------|-----------------------------------------------|
----------------------------------|---------------------10-12-10------------------|
------8---5-8---8---5-8---8---5-8-|------10---12---13------------13-12-10-12------|
--5-5---5-----5---5-----5---5-----|--0-0----0----0----0----------------------14-0-|


  S S  S S  S S  S S  T  T  S  S  S  S  S  S S    S S S S S S S S S S S S S S S S  
-----------------------------------------------|----------------------------------|
-----------------------------------------------|----------------------------------|
-----------------------------------------------|----------------------------------|
---------------------10-12-10------------------|----7-7---7---7-7-7-7-7-7-7-7-7-8-|
------10---12---13------------13-12-10-12------|----8-8---8---8-8-8-8-8-8-8-8-8-5-|
----0----0----0----0----------------------14-8-|----8-8---8---8-8-8-8-8-8-8-8-8-5-|


  S S S S S S S S S S S S S S S S    S S S S S S S S S S S S S S S S  
----------------------------------|----------------------------------|
----------------------------------|----------------------------------|
----------------------------------|----------------------------------|
----8-8---8---8-8-8-8-8-8-3-2---3-|----3-3---3---3-3-3-3-3-3-3-3-3-7-|
----5-5---5---5-5-5-5-5-5-----3-0-|----0-0---0---0-0-0-0-0-0-0-0-0-3-|
----5-5---5---5-5-5-5-5-5-------0-|----0-0---0---0-0-0-0-0-0-0-0-0-3-|


  S S S S S S S S S S S S S S S S    S S S S S S S S S S S S S S S S  
----------------------------------|----------------------------------|
----------------------------------|----------------------------------|
----------------------------------|----------------------------------|
----7-7---7---7-7-7-7-7-7-7-7-7-7-|----7-7---7---7-7-7-7-7-7-7-7-7-8-|
----3-3---3---3-3-3-3-3-3-3-3-3-8-|----8-8---8---8-8-8-8-8-8-8-8-8-5-|
----3-3---3---3-3-3-3-3-3-3-3-3-8-|----8-8---8---8-8-8-8-8-8-8-8-8-5-|


  S S S S S S S S S S S S S S S S    S S S S S S S S S S S S S S S S  
----------------------------------|----------------------------------|
----------------------------------|----------------------------------|
----------------------------------|----------------------------------|
----8-8---8---8-8-8-8-8-8-3-2---3-|----3-3---3---3-3-3-3-3-3-3-3-3-7-|
----5-5---5---5-5-5-5-5-5-----3-0-|----0-0---0---0-0-0-0-0-0-0-0-0-3-|
----5-5---5---5-5-5-5-5-5-------0-|----0-0---0---0-0-0-0-0-0-0-0-0-3-|


  S S S S S S S S S S S S S S S  S    S  S  S S  S S  S  S  S  S  S  S  S  S  S  S  
-----------------------------------|-----------------------------------------------|
-----------------------------------|-----------------------------------------------|
--------------------------------14-|----14-14---14---14-14-14-14-14-14-14-14-14-10-|
----7-7---7---7-7-7-7-7-7-7-7-7----|-----------------------------------------------|
----3-3---3---3-3-3-3-3-3-3-3-3-12-|----12-12---12---12-12-12-12-12-12-12-12-12--8-|
----3-3---3---3-3-3-3-3-3-3-3-3----|-----------------------------------------------|


  S  S  S S  S S  S  S  S  S  S  S  S  S  S  S    S  S  S S  S S  S  S  S  S  S  S  S  S  S S  
-----------------------------------------------|----------------------------------------------|
-----------------------------------------------|----------------------------------------------|
----10-10---10---10-10-10-10-10-10-10-10-10-12-|----12-12---12---12-12-12-12-12-12-12-12-12-9-|
-----------------------------------------------|----------------------------------------------|
-----8--8----8----8--8--8--8--8--8--8--8--8-10-|----10-10---10---10-10-10-10-10-10-10-10-10-7-|
-----------------------------------------------|----------------------------------------------|


  S S S S S S S S S S S S S S S  S    S  S  S S  S S  S  S  S  S  S  S  S  S  S  S  
-----------------------------------|-----------------------------------------------|
-----------------------------------|-----------------------------------------------|
----9-9---9---9-9-9-9-9-9-9-9-9-14-|----14-14---14---14-14-14-14-14-14-14-14-14-10-|
-----------------------------------|-----------------------------------------------|
----7-7---7---7-7-7-7-7-7-7-7-7-12-|----12-12---12---12-12-12-12-12-12-12-12-12--8-|
-----------------------------------|-----------------------------------------------|


  S  S  S S  S S  S  S  S  S  S  S  S  S  S  S    S  S  S S  S S  S  S  S  S  S  S  S  S  S S  
-----------------------------------------------|----------------------------------------------|
-----------------------------------------------|----------------------------------------------|
----10-10---10---10-10-10-10-10-10-10-10-10-12-|----12-12---12---12-12-12-12-12-12-12-12-12-9-|
-----------------------------------------------|----------------------------------------------|
-----8--8----8----8--8--8--8--8--8--8--8--8-10-|----10-10---10---10-10-10-10-10-10-10-10-10-7-|
-----------------------------------------------|----------------------------------------------|


  S S S S S S S S S S S S S S S S         E  E  E          E  E  E   
----------------------------------|----|-----------|----|-----------|
----------------------------------|----|-----------|----|-----------|
----9-9---9---9-9-9-9-9-9-9-9-9-9-|----|-----------|----|-----------|
----------------------------------|----|-----------|----|-----------|
----7-7---7---7-7-7-7-7-7-7-7-7-7-|----|--0--1--0--|----|--0--1--0--|
----------------------------------|----|--0--1--0--|----|--0--1--0--|


  S S S S  S S  S S  S  S S S S S S S    S S S S    E  E  E        
--------------------------------------|----------|-----------|----|
--------------------------------------|----------|-----------|----|
--------------------------------------|----------|-----------|----|
---------------10-0-------------------|----------|-----------|----|
--------------------12-10-8-0-----7-8-|--5-7-4-5-|--0--1--0--|----|
----------12------------------8-------|----------|--0--1--0--|----|


  E  E  E  E  E  T T T T T T T T T S T    S S S S S S T E     T T T T T T T T T  
---------------------------------------|-------------------|--------------------|
---------------------------------------|-------------------|--------------------|
---------------------------------------|-------------------|--------------------|
---------------------------------------|-------------------|--------------------|
--0--1--0----------------------0-0-0---|----0-----0-----1--|--0-0-0-0-0-0-0-0-0-|
--0--1--0----------------------0-0-0---|----0-----0-----1--|--0-0-0-0-0-0-0-0-0-|


  T T T T T T T T T    T T T T T T T T T    T T T T T T T T T       
--------------------|--------------------|--------------------|----|
--------------------|--------------------|--------------------|----|
--------------------|--------------------|--------------------|----|
--------------------|--------------------|--------------------|----|
--0-0-0-0-0-0-0-0-0-|--0-0-0-0-0-0-0-0-0-|--0-0-0-0-0-0-0-0-0-|----|
--0-0-0-0-0-0-0-0-0-|--0-0-0-0-0-0-0-0-0-|--0-0-0-0-0-0-0-0-0-|----|


  T T T T T T T T T T T T T T T T T T T T T T T T T T T T T T  
--------------------------------------------------------------|
--------------------------------------------------------------|
--------------------------------------------------------------|
--------------------------------------------------------------|
--0-0-0-0-0-0-0-0-0-------------------0-0-0-------0-0-----0-0-|
--0-0-0-0-0-0-0-0-0-------------------0-0-0-------0-0-----0-0-|


  T T T T T T T T T T T T T T T T T T T T T T T T T T T T T T T  
----------------------------------------------------------------|
----------------------------------------------------------------|
----------------------------------------------------------------|
----------------------------------------------------------------|
--0-0-0-0-0-0-0-0-0-----------0-0-0-----0-----0---0-----0-----0-|
--0-0-0-0-0-0-0-0-0-----------0-0-0-----0-----0---0-----0-----0-|


  T T T T T T T T T T T T T T T T T T T T T T T T T T T T T T  
--------------------------------------------------------------|
--------------------------------------------------------------|
--------------------------------------------------------------|
--------------------------------------------------------------|
--0-0-0-0-0-0-0-0-0-------------------0-0-0-------0-0-----0-0-|
--0-0-0-0-0-0-0-0-0-------------------0-0-0-------0-0-----0-0-|


  T T T T T T T T T T T T T T T T T T T T T T T T T T T T T T T  
----------------------------------------------------------------|
----------------------------------------------------------------|
----------------------------------------------------------------|
----------------------------------------------------------------|
--0-0-0-0-0-0-0-0-0-----------0-0-0-----0-----0---0-----0-----0-|
--0-0-0-0-0-0-0-0-0-----------0-0-0-----0-----0---0-----0-----0-|


  T T T T T T T T T T T T T T T T T T T T T T T T T T T T T T  
--------------------------------------------------------------|
--------------------------------------------------------------|
--------------------------------------------------------------|
--------------------------------------------------------------|
--0-0-0-0-0-0-0-0-0-------------------0-0-0-------0-0-----0-0-|
--0-0-0-0-0-0-0-0-0-------------------0-0-0-------0-0-----0-0-|


  T T T T T T T T T T T T T T T T T T T T T T T T T T T T T T T  
----------------------------------------------------------------|
----------------------------------------------------------------|
----------------------------------------------------------------|
----------------------------------------------------------------|
--0-0-0-0-0-0-0-0-0-----------0-0-0-----0-----0---0-----0-----0-|
--0-0-0-0-0-0-0-0-0-----------0-0-0-----0-----0---1-----1-----1-|


  T T T T T T T T T T T T T T T T T T T T T T T T T T T T T T  
--------------------------------------------------------------|
--------------------------------------------------------------|
--------------------------------------------------------------|
--------------------------------------------------------------|
--0-0-0-0-0-0-0-0-0-------------------0-0-0-------0-0-----0-0-|
--0-0-0-0-0-0-0-0-0-------------------0-0-0-------0-0-----0-0-|


  T T T T T T T T T T T T T T T T T T T T T T T T T T T T T T T    T T T T T T T T T  
----------------------------------------------------------------|--------------------|
----------------------------------------------------------------|--------------------|
----------------------------------------------------------------|--------------------|
----------------------------------------------------------------|--------------------|
--0-0-0-0-0-0-0-0-0-----------0-0-0-----0-----0---0-----0-----0-|--0-----0-----0---0-|
--0-0-0-0-0-0-0-0-0-----------0-0-0-----0-----0---1-----1-----1-|--1-----1-----1---1-|


   S S  S S  S  S S S S S  S  S  S  S  S  S    S S  S  S  S  S  S  S S S S  S S  S S  S  
--------------------------------------------|-------------------------------------------|
--------------------------------------------|-------------------------------------------|
--------------------------------------------|----------------------------7p-5-9p-5-7p-5-|
-------10-0---------------12-10-------------|-------------------------------------------|
------------12-10-8-0-----------12-13-10-12-|------10p-0-12p-0-10p-0--------------------|
--12------------------8---------------------|--0-0-------------------5-5----------------|


  S S S S S   S  S S  S  S  S  S  S   S   S    S S  S  S  S  S  S  S S S S  S S  S S  S  
--------------------------------------------|-------------------------------------------|
--------------------------------------------|-------------------------------------------|
------9---9h-10p-9---------10----10h-12h-14-|----------------------------7p-5-9p-5-7p-5-|
--------------------------------------------|-------------------------------------------|
--------------------------------------------|------10p-0-12p-0-10p-0--------------------|
--8-8---8------------10-10----10------------|--0-0-------------------5-5----------------|


  S S S S S   S  S S  S  S  S  S  S   S   S    S S  S  S  S  S  S  S S S S  S S  S S  S  
--------------------------------------------|-------------------------------------------|
--------------------------------------------|-------------------------------------------|
------9---9h-10p-9---------10----10h-12h-14-|----------------------------7p-5-9p-5-7p-5-|
--------------------------------------------|-------------------------------------------|
--------------------------------------------|------10p-0-12p-0-10p-0--------------------|
--8-8---8------------10-10----10------------|--0-0-------------------5-5----------------|


  S S S S S   S  S S  S  S  S  S  S   S   S    S S  S  S  S  S  S  S S S S  S S  S S  S  
--------------------------------------------|-------------------------------------------|
--------------------------------------------|-------------------------------------------|
------9---9h-10p-9---------10----10h-12h-14-|----------------------------7p-5-9p-5-7p-5-|
--------------------------------------------|-------------------------------------------|
--------------------------------------------|------10p-0-12p-0-10p-0--------------------|
--8-8---8------------10-10----10------------|--0-0-------------------5-5----------------|


  S S S S S   S  S S  S  S  S  S  S   S   S    S S S S S S S S S S S S S S S S  
--------------------------------------------|----------------------------------|
--------------------------------------------|----------------------------------|
------9---9h-10p-9---------10----10h-12h-14-|--------5---------------5---------|
--------------------------------------------|----7-8---8-7-5-7---7-8---8-7-5-7-|
--------------------------------------------|--5---------------5---------------|
--8-8---8------------10-10----10------------|----------------------------------|


  S S S S S S S S S S S S S S S S    S S S S S S S S S S S S S S S S  
----------------------------------|----------------------------------|
----------------------------------|----------------------------------|
--------5---------------5---------|--------5---------------5---------|
----7-8---8-7-5-7---7-8---8-7-5-7-|----7-8---8-7-5-7---7-8---8-7-5-7-|
--5---------------5---------------|--5---------------5---------------|
----------------------------------|----------------------------------|


  S S S S S S S S S S S S S S S S       
----------------------------------|----|
----------------------------------|----|
--------5---------------5---------|----|
----7-8---8-7-5-7---7-8---8-7-5-7-|----|
--5---------------5---------------|----|
----------------------------------|----|


  T T T T T T T T T T T T T T T T T T T T T T T T T T T T T T T  
----------------------------------------------------------------|
----------------------------------------------------------------|
----------------------------------------------------------------|
----------------------------------------------------------------|
--0-0-0-----------0-0-0---0-0-0---0-0-0-----------0-0-0---0-0-0-|
--0-0-0-----------0-0-0---0-0-0---0-0-0-----------0-0-0---0-0-0-|


  T T T T T T T T T T T T T T T T S S S S S S S S  
--------------------------------------------------|
--------------------------------------------------|
----------------------------------------5---------|
------------------------------------7-8---8-7-5-7-|
--0-0-0-----------0-0-0---0-0-0---5---------------|
--0-0-0-----------0-0-0---0-0-0-------------------|


  T T T T T T T T T T T T T T T T T T T T T T T T T T T T T T T  
----------------------------------------------------------------|
----------------------------------------------------------------|
----------------------------------------------------------------|
----------------------------------------------------------------|
--0-0-0-----------0-0-0---0-0-0---0-0-0-----------0-0-0---0-0-0-|
--0-0-0-----------0-0-0---0-0-0---0-0-0-----------0-0-0---0-0-0-|


  T T T T T T T T T T T T T T T T S S S S S S S S    T T T  
--------------------------------------------------|--------|
--------------------------------------------------|--------|
----------------------------------------5---------|--------|
------------------------------------7-8---8-7-5-7-|--------|
--0-0-0-----------0-0-0---0-0-0---5---------------|--0-0-0-|
--0-0-0-----------0-0-0---0-0-0-------------------|--0-0-0-|


  T T T T T T T T T T T T T T T T T T T T T T T T T T T  
--------------------------------------------------------|
--------------------------------------------------------|
--------------------------------------------------------|
--------------------------------------------------------|
--0-0-0---0-0-0---0-0-0-----------0-0-0---0-0-0---0-0-0-|
--0-0-0---0-0-0---0-0-0-----------0-0-0---0-0-0---0-0-0-|


  T T T T T T T T S S S  S S S S S T T T T  
-------------------------------------------|
-------------------------------------------|
-------------------------------------------|
-------------------------------------------|
--0-0-0---0-0-0--------------------0-0-0---|
--0-0-0---0-0-0---0-7-8-10-8-7-5-7-0-0-0---|


  T T T T T T T T T T T T T T T T T T T T T T T T T T T  
--------------------------------------------------------|
--------------------------------------------------------|
--------------------------------------------------------|
--------------------------------------------------------|
--0-0-0---0-0-0---0-0-0-----------0-0-0---0-0-0---0-0-0-|
--0-0-0---0-0-0---0-0-0-----------0-0-0---0-0-0---0-0-0-|


  T T T T T T T T S S S  S S S S S T T T T  
-------------------------------------------|
-------------------------------------------|
-------------------------------------------|
-------------------------------------------|
--0-0-0---0-0-0--------------------0-0-0---|
--0-0-0---0-0-0---0-7-8-10-8-7-5-7-0-0-0---|


  T T T T T T T T T T T T T T T T T T T T T T T T T T T  
--------------------------------------------------------|
--------------------------------------------------------|
--------------------------------------------------------|
--------------------------------------------------------|
--0-0-0---0-0-0---0-0-0-----------0-0-0---0-0-0---0-0-0-|
--1-1-1---1-1-1---1-1-1-----------1-1-1---1-1-1---1-1-1-|


  T T T T T T T T T T T T T T T T T T T T T T T T T T T  
--------------------------------------------------------|
--------------------------------------------------------|
--------------------------------------------------------|
--------------------------------------------------------|
--0-0-0---0-0-0---0-0-0-----------0-0-0---0-0-0---0-0-0-|
--1-1-1---1-1-1---0-0-0-----------0-0-0---0-0-0---1-1-1-|


  T T T T T T T T T T T T T T T T T T T T T T T T T T T  
--------------------------------------------------------|
--------------------------------------------------------|
--------------------------------------------------------|
--------------------------------------------------------|
--0-0-0---0-0-0---0-0-0-----------0-0-0---0-0-0---0-0-0-|
--1-1-1---1-1-1---1-1-1-----------1-1-1---1-1-1---1-1-1-|


  T T T T T T T T T T T T T T T T T T T T T T T T Q           
-------------------------------------------------------|----||
-------------------------------------------------------|----||
-------------------------------------------------------|----||
-------------------------------------------------------|----||
--0-0-0---0-0-0---0-0-0-----------0-0-0---0-0-0---0----|----||
--1-1-1---1-1-1---0-0-0-----------0-0-0---0-0-0---1----|----||




Duration Legend
---------------
W - whole
H - half
Q - quarter
E - 8th
S - 16th
T - 32nd
X - 64th
. - note dotted
|-n-|  - n-tuplets


Tablature Legend
----------------
L - tied note
x - dead note
g - grace note
(n) - ghost note
> - accentuded note
NH - natural harmonic
AH - artificial harmonic
TH - tapped harmonic
SH - semi harmonic
PH - pitch harmonic
h - hammer on
p - pull off
b - bend
br - bendRelease
pb - preBend
pbr - preBendRelease
brb - bendReleaseBend
\n/ - tremolo bar dip
\n - tremolo bar dive
-/n - tremolo bar Release up
/n\ - tremolo bar inverted dip
/n - tremolo bar return
-\n - tremolo bar Release down
S - shift slide
s - legato slide
/ -  slide into from below or out of upwards
\ -  slide into from above or out of downwards
~ - vibrato
W - wide vibrato
tr - trill
TP - tremolo picking
T - tapping
S - slap
P - pop
< - fade in
^ - brush up
v - brush down

comments
We did not receive enough feedback on this tab! Please rate:
1 2 3 4 5
I want to post or [tab]
guest
You may want to rate the tab now too:
select rating
Please do not post tabs as comments. Select "correction" instead!