Oops, an error
Loading. Please wait.

Such Creatures Exist - Dustin Javis Tab

ver1
ver1

Whole song

Interactive

More versions @911Tabs.com
55 views 1 this week
no commentswrite comment
1 2 3 4 5
please rate
add to favorites launch autoscroll
font size
0
reset
Autoscroll
+/-
esc
set tempo
stop
Contributor
Difficulty
Tuning
intermediate
C G C F A D
WARNING: You are trying to view
                                    content from Ultimate-Guitar.com
                                    in an unauthorized application,
                                    which is prohibited.

                                    Please use an official Ultimate
                                    Guitar Tabs application for iPhone,
                                    iPad or Android to access legitimate
                                    chords, guitar, bass, and drum tabs
                                    from Ultimate-Guitar.com database.

                                    Type "ultimate guitar tabs" in Apple
                                    App Store's or Android Market's
                                    search to find the application.
   Dustin Javis                                           


                                                                           Such Creatures Exist
Guitar 1



                   ^   ^   ^       ^   ^   ^          ^   ^   ^  >  >  >  >  >   >  >  >  
             S S S S S S S S S S S S S S S S    S S S S S S S S  S  S  S  S  S   S  S  S  
D||-------|----------------------------------|-------------------------------------------|
A||-------|----------------------------------|-------------------------------------------|
F||-------|----------------------------------|-------------------------------------------|
C||-------|----------------------------------|-------------------------------------------|
G||-------|--0-0-0---0---0---0-0-0---0---0---|--0-0-0---0---0----------------------------|
C||-------|--0-0-0-0-0-0-0-0-0-0-0-0-0-0-0-0-|--0-0-0-0-0-0-0-0-12p-0-12p-0-12h-13-13-13-|


        ^   ^   ^       ^   ^   ^          ^   ^   ^                           
  S S S S S S S S S S S S S S S S    S S S S S S S S T  T  T T S  S S  S S  S  
----------------------------------|-------------------------------------------|
----------------------------------|------------------5h-6p-5------------------|
----------------------------------|----------------------------7p-6-----------|
----------------------------------|---------------------------------7p-6------|
--0-0-0---0---0---0-0-0---0---0---|--0-0-0---0---0-----------------------8p-7-|
--0-0-0-0-0-0-0-0-0-0-0-0-0-0-0-0-|--0-0-0-0-0-0-0-0--------------------------|


        ^   ^   ^       ^   ^   ^          ^   ^   ^  >  >  >  >  >   >  >  >  
  S S S S S S S S S S S S S S S S    S S S S S S S S  S  S  S  S  S   S  S  S  
----------------------------------|-------------------------------------------|
----------------------------------|-------------------------------------------|
----------------------------------|-------------------------------------------|
----------------------------------|-------------------------------------------|
--0-0-0---0---0---0-0-0---0---0---|--0-0-0---0---0----------------------------|
--0-0-0-0-0-0-0-0-0-0-0-0-0-0-0-0-|--0-0-0-0-0-0-0-0-12p-0-12p-0-12h-13-13-13-|


        ^   ^   ^       ^   ^   ^          ^   ^   ^                           
  S S S S S S S S S S S S S S S S    S S S S S S S S T  T  T T S  S S  S S  S  
----------------------------------|-------------------------------------------|
----------------------------------|------------------5h-6p-5------------------|
----------------------------------|----------------------------7p-6-----------|
----------------------------------|---------------------------------7p-6------|
--0-0-0---0---0---0-0-0---0---0---|--0-0-0---0---0-----------------------8p-7-|
--0-0-0-0-0-0-0-0-0-0-0-0-0-0-0-0-|--0-0-0-0-0-0-0-0--------------------------|


  S S S S S S S S    S S S S S S S S S S S S S S S    S S S S S S S S  
------------------|--------------------------------|------------------|
------------------|--------------------------------|------------------|
------------------|--------------------------------|------------------|
------------------|--------------------------------|------------------|
--0-0-0-0-0-0-0-0-|--0-0-0-0-0-0-0-0---------0-0-0-|--0-0-0-0-0-0-0-0-|
--0-1-2-0-3-2-0-1-|--0-1-2-0-3-2-0-1---------3-2-1-|--1-1-1-1-1-1-1-1-|


                          -\2                                                        
  S S S S S S S S S S S S S      S S S S S S S S    S S S S S S S S S S S S S S S S  
------------------------------|------------------|----------------------------------|
------------------------------|------------------|----------------------------------|
------------------------------|------------------|----------------------------------|
------------------------------|------------------|----------------------------------|
--0-0-0-0-0-0-0-0-------------|--0-0-0-0-0-0-0-0-|--0-0-0-0-0-0-0-0---0-0-0-0-0-0-0-|
--1-1-1-1-1-1-1-1---------1---|--1-1-1-1-1-1-1-1-|--1-1-1-1-1-1-1-1---0-1-0-3-2-0-1-|


  S S S S S S S S T T T T T T T T T T T T T    S S S S S S S S S S S S S S S  
--------------------------------------------|--------------------------------|
--------------------------------------------|--------------------------------|
--------------------------------------------|--------------------------------|
--------------------------------------------|--------------------------------|
--0-0-0-0-0-0-0-0-----0-0-0---0-0-0---0-0-0-|--0-0-0-0-0-0-0-0---------------|
--0-0-0-0-0-0-0-0-----0-0-0---0-0-0---0-0-0-|--0-0-0-0-0-0-0-0---0-0-0-0---0-|


  S S S S S S S S T T T T T T T T T T T T T    S S S S S S S S S  S  S  S  S S  S   
--------------------------------------------|--------------------------------------|
--------------------------------------------|--------------------------------------|
--------------------------------------------|--------------------------------------|
--------------------------------------------|--------------------------------------|
--0-0-0-0-0-0-0-0-----0-0-0---0-0-0---0-0-0-|--0-0-0-0-0-0-0-0---------------------|
--0-0-0-0-0-0-0-0-----0-0-0---0-0-0---0-0-0-|--0-0-0-0-0-0-0-0---15-15-15-15---15S-|


  S S S S S S S S T T T T T T T T T T T T T    S S S S S S S S S S S S S S S  
--------------------------------------------|--------------------------------|
--------------------------------------------|--------------------------------|
--------------------------------------------|--------------------------------|
--------------------------------------------|--------------------------------|
--0-0-0-0-0-0-0-0-----0-0-0---0-0-0---0-0-0-|--0-0-0-0-0-0-0-0---------------|
--0-0-0-0-0-0-0-0-----0-0-0---0-0-0---0-0-0-|--0-0-0-0-0-0-0-0---0-0-0-0---0-|


  S S S S S S S S T T T T T T T T T T T T T    S S S S S S S S S  S  S  S  S S  S  
--------------------------------------------|-------------------------------------|
--------------------------------------------|-------------------------------------|
--------------------------------------------|-------------------------------------|
--------------------------------------------|-------------------------------------|
--0-0-0-0-0-0-0-0-----0-0-0---0-0-0---0-0-0-|--0-0-0-0-0-0-0-0--------------------|
--0-0-0-0-0-0-0-0-----0-0-0---0-0-0---0-0-0-|--0-0-0-0-0-0-0-0---15-15-15-15---15-|


  W                   S S S S S S S S S S S S S S S S    W                 
-------------------|----------------------------------|-------------------|
-------------------|----------------------------------|-------------------|
-------------------|----------------------------------|-------------------|
-------------------|----------------------------------|-------------------|
--0----------------|------------------0-0-0-0-0-0-0-0-|--0----------------|
--0----------------|------------------1-1-1-1-1-1-1-1-|--0----------------|


  S S S S S S S S S S S S S S S S    S S S S S S S S S S S S S S S S  
----------------------------------|----------------------------------|
----------------------------------|----------------------------------|
----------------------------------|----------------------------------|
----------------------------------|----------------------------------|
------------------0-0-0-0-0-0-0-0-|--0---0-0-----0-----0-0-0-0-0-4-3-|
------------------1-1-1-1-1-1-1-1-|--0---0-0-1-0-0-----0-0-0-1-0-4-3-|


  S S S S S S S S S S S S S S S S    S S S S S S S S S S S S S S S S  
----------------------------------|----------------------------------|
----------------------------------|----------------------------------|
----------------------------------|----------------------------------|
----------------------------------|----------------------------------|
----3-3---3-3-4-0---0-0---0-0-4-0-|----0-0---0-0-0---0-0-0---0-0-4-3-|
----3-3---3-3-4-1---1-1---1-1-4-0-|----0-0---0-0-0---0-0-0---1-0-4-3-|


  S S S S S S S S S S S S S S S S    S S S S S S S S S S S S S S S S  
----------------------------------|----------------------------------|
----------------------------------|----------------------------------|
----------------------------------|----------------------------------|
----------------------------------|----------------------------------|
----3-3---3-3-4-0---0-0---0-0-4-0-|----0-0---0-0-0---0-0-0---0-0-4-3-|
----3-3---3-3-4-1---1-1---1-1-4-0-|----0-0---0-0-0---0-0-0---1-0-4-3-|


  S S S S S S S S S S S S S S S S    S S S S S S S S S S S S S S S S  
----------------------------------|----------------------------------|
----------------------------------|----------------------------------|
----------------------------------|----------------------------------|
----------------------------------|----------------------------------|
----3-3---3-3-4-0---0-0---0-0-4-0-|----0-0---0-0-0---0-0-0---0-0-4-3-|
----3-3---3-3-4-1---1-1---1-1-4-0-|----0-0---0-0-0---0-0-0---1-0-4-3-|


  S S S S S S S S S S S S S S S S    S S S S S S S S S S S S S S S S  
----------------------------------|----------------------------------|
----------------------------------|----------------------------------|
----------------------------------|----------------------------------|
----------------------------------|----------------------------------|
----3-3---3-3-4-0---0-0---0-0-4-0-|----0-0---0-0-0---0-0-0---5-0-5-8-|
----3-3---3-3-4-1---1-1---1-1-4-0-|----0-0---0-0-0---0-0-0---5-0-5-8-|


  S S S S S S S S S S S S S S S S    S S S S S S S S S S S S S S S S  
----------------------------------|----------------------------------|
----------------------------------|----------------------------------|
----------------------------------|----------------------------------|
--------------------------8-7-----|----------------------------------|
----8-8---8-8-8-5---5-5-------8-0-|----0-0---0-0-0---0-0-0---5-0-5-8-|
----8-8---8-8-8-5---5-5---------0-|----0-0---0-0-0---0-0-0---5-0-5-8-|


  S S S S S S S S S S S S S S S S    S S S S S S S S S S S S S S S S  
----------------------------------|----------------------------------|
----------------------------------|----------------------------------|
----------------------------------|----------------------------------|
--------------------------8-7-----|----------------------------------|
----8-8---8-8-8-5---5-5-------8-0-|----0-0---0-0-0---0-0-0---5-0-5-8-|
----8-8---8-8-8-5---5-5---------0-|----0-0---0-0-0---0-0-0---5-0-5-8-|


  S S S S S S S S S S S S S S S S    S S S S S S S S S S S S S S S S  
----------------------------------|----------------------------------|
----------------------------------|----------------------------------|
----------------------------------|----------------------------------|
--------------------------8-7-----|----------------------------------|
----8-8---8-8-8-5---5-5-------8-0-|----0-0---0-0-0---0-0-0---5-0-5-8-|
----8-8---8-8-8-5---5-5---------0-|----0-0---0-0-0---0-0-0---5-0-5-8-|


  S S S S S S S S S S S S S S S S                      
----------------------------------|----|----|----|----|
----------------------------------|----|----|----|----|
----------------------------------|----|----|----|----|
--------------------------8-7-----|----|----|----|----|
----8-8---8-8-8-5---5-5-------8-0-|----|----|----|----|
----8-8---8-8-8-5---5-5---------0-|----|----|----|----|


   T  T  T  T  T  T  T  T  T  T  T  T  T  T  T  T  T  T  T  T  T  T  T  T  T  T  T  T  T  T  T 
--17-17-17-17-17-17-17-17-17-17-17-17-17-17-17-17-17-17-17-17-17-17-17-17-17-17-17-17-17-17-17-
-----------------------------------------------------------------------------------------------
-----------------------------------------------------------------------------------------------
-----------------------------------------------------------------------------------------------
-----------------------------------------------------------------------------------------------
-----------------------------------------------------------------------------------------------


                                                                           /1\ 
   T  T  T  T  T  T  T  T  T  T  T  T  T  T  T  T  T  T  T  T  T  T  T  T  T   
--15-15-15-15-15-15-15-15-15-15-15-15-15-15-15-15-12-12-12-12-12-12-12-12-12--|
------------------------------------------------------------------------------|
------------------------------------------------------------------------------|
------------------------------------------------------------------------------|
------------------------------------------------------------------------------|
------------------------------------------------------------------------------|


   T  T  T  T  T  T  T  T  T  T  T  T  T  T  T  T  T  T  T  T  T  T  T  T  T  T  T  T  T  T  T 
--17-17-17-17-17-17-17-17-17-17-17-17-17-17-17-17-17-17-17-17-17-17-17-17-17-17-17-17-17-17-17-
-----------------------------------------------------------------------------------------------
-----------------------------------------------------------------------------------------------
-----------------------------------------------------------------------------------------------
-----------------------------------------------------------------------------------------------
-----------------------------------------------------------------------------------------------


                                                                           /1\ 
   T  T  T  T  T  T  T  T  T  T  T  T  T  T  T  T  T  T  T  T  T  T  T  T  T   
--15-15-15-15-15-15-15-15-15-15-15-15-15-15-15-15-12-12-12-12-12-12-12-12-12--|
------------------------------------------------------------------------------|
------------------------------------------------------------------------------|
------------------------------------------------------------------------------|
------------------------------------------------------------------------------|
------------------------------------------------------------------------------|


   T  T  T  T  T  T  T  T  T  T  T  T  T  T  T  T  T  T  T  T  T  T  T  T  T  T  T  T  T  T  T 
--17-17-17-17-17-17-17-17-17-17-17-17-17-17-17-17-17-17-17-17-17-17-17-17-17-17-17-17-17-17-17-
-----------------------------------------------------------------------------------------------
-----------------------------------------------------------------------------------------------
-----------------------------------------------------------------------------------------------
-----------------------------------------------------------------------------------------------
-----------------------------------------------------------------------------------------------


                                                                           /1\ 
   T  T  T  T  T  T  T  T  T  T  T  T  T  T  T  T  T  T  T  T  T  T  T  T  T   
--15-15-15-15-15-15-15-15-15-15-15-15-15-15-15-15-12-12-12-12-12-12-12-12-12--|
------------------------------------------------------------------------------|
------------------------------------------------------------------------------|
------------------------------------------------------------------------------|
------------------------------------------------------------------------------|
------------------------------------------------------------------------------|


   T  T  T  T  T  T  T  T  T  T  T  T  T  T  T  T  T  T  T  T  T  T  T  T  T  T  T  T  T  T  T 
--17-17-17-17-17-17-17-17-17-17-17-17-17-17-17-17-17-17-17-17-17-17-17-17-17-17-17-17-17-17-17-
-----------------------------------------------------------------------------------------------
-----------------------------------------------------------------------------------------------
-----------------------------------------------------------------------------------------------
-----------------------------------------------------------------------------------------------
-----------------------------------------------------------------------------------------------


                                                                           /1\ 
   T  T  T  T  T  T  T  T  T  T  T  T  T  T  T  T  T  T  T  T  T  T  T  T  T   
--15-15-15-15-15-15-15-15-15-15-15-15-15-15-15-15-12-12-12-12-12-12-12-12-12--|
------------------------------------------------------------------------------|
------------------------------------------------------------------------------|
------------------------------------------------------------------------------|
------------------------------------------------------------------------------|
------------------------------------------------------------------------------|


  W                   T T T T T T T T T T T T T T T T T T T T T T T T T  T T T T  T T T  
-------------------|--------------------------------------------------------------------|
-------------------|--------------------------------------------------------------------|
-------------------|--------------------------------------------------------------------|
-------------------|--------------------------------------------------------------------|
--0----------------|--------------------------------------------------3b----------------|
--0----------------|-----------------------------------------------------------1b-------|


  W                   T T T T T T T T T T T T T T T T T T T T T T T T  
-------------------|--------------------------------------------------|
-------------------|--------------------------------------------------|
-------------------|--------------------------------------------------|
-------------------|--------------------------------------------------|
--0----------------|------------------------------------0-0-0-0-0-0-0-|
--0----------------|------------------------------------0-0-0-0-0-0-0-|


  T T T T T T T T T T T T T T T T T T T T T T T T T T T T T T T  
----------------------------------------------------------------|
----------------------------------------------------------------|
----------------------------------------------------------------|
----------------------------------------------------------------|
--0-0-0-0-0-0-0-0-0-0---0-0---0-0---0-0-0-0-0-0-0-0---0-0---0-0-|
--0-0-0-0-0-0-0-0-0-0---0-0---0-0---0-0-0-0-0-0-0-0---0-0---0-0-|


  T T T T T T T T T T T T T T T T T T T T T T T T T  T T T T   
--------------------------------------------------------------|
--------------------------------------------------------------|
--------------------------------------------------------------|
--------------------------------------------------------------|
--0-0-0-0-0-0-0-0-0-0---0-0---0-0---0-0-0-0-0-0-0-3b----------|
--0-0-0-0-0-0-0-0-0-0---0-0---0-0---0-0-0-0-0-0-0----------1b-|


  T T T T T T T T T T T T T T T T T T T T T T T T T T T T T T T  
----------------------------------------------------------------|
----------------------------------------------------------------|
----------------------------------------------------------------|
----------------------------------------------------------------|
--0-0-0-0-0-0-0-0-0-0---0-0---0-0---0-0-0-0-0-0-0-0---0-0---0-0-|
--0-0-0-0-0-0-0-0-0-0---0-0---0-0---0-0-0-0-0-0-0-0---0-0---0-0-|


  T T T T T T T T T T T T T T T T T T T T T T T T T  T T T T   
--------------------------------------------------------------|
--------------------------------------------------------------|
--------------------------------------------------------------|
--------------------------------------------------------------|
--0-0-0-0-0-0-0-0-0-0---0-0---0-0---0-0-0-0-0-0-0-3b----------|
--0-0-0-0-0-0-0-0-0-0---0-0---0-0---0-0-0-0-0-0-0----------1b-|


  T T T T T T T T T T T T T T T T T T T T T T T T T T T T T T T  
----------------------------------------------------------------|
----------------------------------------------------------------|
----------------------------------------------------------------|
----------------------------------------------------------------|
--0-0-0-0-0-0-0-0-0-0---0-0---0-0---0-0-0-0-0-0-0-0---0-0---0-0-|
--0-0-0-0-0-0-0-0-0-0---0-0---0-0---0-0-0-0-0-0-0-0---0-0---0-0-|


  T T T T T T T T T T T T T T T T T T T T T T T T T  T T T T   
--------------------------------------------------------------|
--------------------------------------------------------------|
--------------------------------------------------------------|
--------------------------------------------------------------|
--0-0-0-0-0-0-0-0-0-0---0-0---0-0---0-0-0-0-0-0-0-3b----------|
--0-0-0-0-0-0-0-0-0-0---0-0---0-0---0-0-0-0-0-0-0----------1b-|


  T T T T T T T T T T T T T T T T T T T T T T T T T T T T T T T  
----------------------------------------------------------------|
----------------------------------------------------------------|
----------------------------------------------------------------|
----------------------------------------------------------------|
--0-0-0-0-0-0-0-0-0-0---0-0---0-0---0-0-0-0-0-0-0-0---0-0---0-0-|
--0-0-0-0-0-0-0-0-0-0---0-0---0-0---0-0-0-0-0-0-0-0---0-0---0-0-|


  T T T T T T T T T T T T T T T T T T T T T T T T T  T T T T   
--------------------------------------------------------------|
--------------------------------------------------------------|
--------------------------------------------------------------|
--------------------------------------------------------------|
--0-0-0-0-0-0-0-0-0-0---0-0---0-0---0-0-0-0-0-0-0-3b----------|
--0-0-0-0-0-0-0-0-0-0---0-0---0-0---0-0-0-0-0-0-0----------1b-|


  T T T T T T T T T T T T T T T T T T T T T T T T T T T T T T  
--------------------------------------------------------------|
--------------------------------------------------------------|
--------------------------------------------------------------|
--------------------------------------------------------------|
--0-0-----0-0---------0-0-----0-0-----0-0-0-0-----0-0-----0-0-|
--0-0-----0-0---------0-0-----0-0-----0-0-0-0-----0-0-----0-0-|


  T T T T T T T T T T T T T T T T T T T T T T T T T T T T T T  
--------------------------------------------------------------|
--------------------------------------------------------------|
--------------------------------------------------------------|
--------------------------------------------------------------|
--5-5-----5-5---------5-5-----5-5-----8-8-8-8-----8-8-----8-8-|
--5-5-----5-5---------5-5-----5-5-----8-8-8-8-----8-8-----8-8-|


  T T T T T T T T T T T T T T T T T T T T T T T T T T T T T T  
--------------------------------------------------------------|
--------------------------------------------------------------|
--------------------------------------------------------------|
--------------------------------------------------------------|
--0-0-----0-0---------0-0-----0-0-----0-0-0-0-----0-0-----0-0-|
--0-0-----0-0---------0-0-----0-0-----0-0-0-0-----0-0-----0-0-|


  T T T T T T T T T T T T T T T T T T T T T T T T T T T T T T  
--------------------------------------------------------------|
--------------------------------------------------------------|
--------------------------------------------------------------|
--------------------------------------------------------------|
--5-5-----5-5---------5-5-----5-5-----8-8-8-8-----8-8-----8-8-|
--5-5-----5-5---------5-5-----5-5-----8-8-8-8-----8-8-----8-8-|


  T T T T T T T T T T T T T T T T T T T T T T T T T T T T T T  
--------------------------------------------------------------|
--------------------------------------------------------------|
--------------------------------------------------------------|
--7-7-----7-7---------7-7-----7-7-----7-7-7-7-----7-7-----7-7-|
--8-8-----8-8---------8-8-----8-8-----8-8-8-8-----8-8-----8-8-|
--0-0-----0-0---------0-0-----0-0-----0-0-0-0-----0-0-----0-0-|


  T T T T T T T T T T T T T T T T T T T T T T T T T T T T T T  
--------------------------------------------------------------|
--------------------------------------------------------------|
--------------------------------------------------------------|
--8-8-----8-8---------8-8-----8-8-----5-5-5-5-----5-5-----5-5-|
--5-5-----5-5---------5-5-----5-5-----5-5-5-5-----5-5-----5-5-|
--5-5-----5-5---------5-5-----5-5-----8-8-8-8-----8-8-----8-8-|


  T T T T T T T T T T T T T T T T T T T T T T T T T T T T T T  
--------------------------------------------------------------|
--------------------------------------------------------------|
--------------------------------------------------------------|
--7-7-----7-7---------7-7-----7-7-----7-7-7-7-----7-7-----7-7-|
--8-8-----8-8---------8-8-----8-8-----8-8-8-8-----8-8-----8-8-|
--0-0-----0-0---------0-0-----0-0-----0-0-0-0-----0-0-----0-0-|


  T T T T T T T T T T T T T T T T T T T T T T T T T T T T T T  
--------------------------------------------------------------|
--------------------------------------------------------------|
--------------------------------------------------------------|
--8-8-----8-8---------8-8-----8-8-----5-5-5-5-----5-5-----5-5-|
--5-5-----5-5---------5-5-----5-5-----5-5-5-5-----5-5-----5-5-|
--5-5-----5-5---------5-5-----5-5-----8-8-8-8-----8-8-----8-8-|


  T T T T T T T T T T T T T T T T T T T T T T T T T T T T T T  
--------------------------------------------------------------|
--------------------------------------------------------------|
--------------------------------------------------------------|
--7-7-----7-7---------7-7-----7-7-----7-7-7-7-----7-7-----7-7-|
--8-8-----8-8---------8-8-----8-8-----8-8-8-8-----8-8-----8-8-|
--0-0-----0-0---------0-0-----0-0-----0-0-0-0-----0-0-----0-0-|


  T T T T T T T T T T T T T T T T T T T T T T T T T T T T T T  
--------------------------------------------------------------|
--------------------------------------------------------------|
--------------------------------------------------------------|
--8-8-----8-8---------8-8-----8-8-----5-5-5-5-----5-5-----5-5-|
--5-5-----5-5---------5-5-----5-5-----5-5-5-5-----5-5-----5-5-|
--5-5-----5-5---------5-5-----5-5-----8-8-8-8-----8-8-----8-8-|


  T T T T T T T T T T T T T T T T T T T T T T T T T T T T T T  
--------------------------------------------------------------|
--------------------------------------------------------------|
--------------------------------------------------------------|
--7-7-----7-7---------7-7-----7-7-----7-7-7-7-----7-7-----7-7-|
--8-8-----8-8---------8-8-----8-8-----8-8-8-8-----8-8-----8-8-|
--0-0-----0-0---------0-0-----0-0-----0-0-0-0-----0-0-----0-0-|


  T T T T T T T T T T T T T T T T T T T T T T T T T T T T T T    E         
--------------------------------------------------------------|-----|----||
--------------------------------------------------------------|-----|----||
--------------------------------------------------------------|-----|----||
--8-8-----8-8---------8-8-----8-8-----5-5-5-5-----5-5-----5-5-|-----|----||
--5-5-----5-5---------5-5-----5-5-----5-5-5-5-----5-5-----5-5-|-----|----||
--5-5-----5-5---------5-5-----5-5-----8-8-8-8-----8-8-----8-8-|--0--|----||





Guitar 2



                                       ^   ^   ^       ^   ^   ^  
     T  T  T T S  S S  S S  S    S S S S S S S S S S S S S S S S  
D||---------------------------|----------------------------------|
A||--5h-6p-5------------------|----------------------------------|
F||------------7p-6-----------|----------------------------------|
C||-----------------7p-6------|----------------------------------|
G||----------------------8p-7-|--0-0-0---0---0---0-0-0---0---0---|
C||---------------------------|--0-0-0-0-0-0-0-0-0-0-0-0-0-0-0-0-|


        ^   ^   ^  >  >  >  >  >   >  >  >          ^   ^   ^       ^   ^   ^  
  S S S S S S S S  S  S  S  S  S   S  S  S    S S S S S S S S S S S S S S S S  
-------------------------------------------|----------------------------------|
-------------------------------------------|----------------------------------|
-------------------------------------------|----------------------------------|
-------------------------------------------|----------------------------------|
--0-0-0---0---0----------------------------|--0-0-0---0---0---0-0-0---0---0---|
--0-0-0-0-0-0-0-0-12p-0-12p-0-12h-13-13-13-|--0-0-0-0-0-0-0-0-0-0-0-0-0-0-0-0-|


        ^   ^   ^                                   ^   ^   ^       ^   ^   ^  
  S S S S S S S S T  T  T T S  S S  S S  S    S S S S S S S S S S S S S S S S  
-------------------------------------------|----------------------------------|
------------------5h-6p-5------------------|----------------------------------|
----------------------------7p-6-----------|----------------------------------|
---------------------------------7p-6------|----------------------------------|
--0-0-0---0---0-----------------------8p-7-|--0-0-0---0---0---0-0-0---0---0---|
--0-0-0-0-0-0-0-0--------------------------|--0-0-0-0-0-0-0-0-0-0-0-0-0-0-0-0-|


        ^   ^   ^  >  >  >  >  >   >  >  >          ^   ^   ^       ^   ^   ^  
  S S S S S S S S  S  S  S  S  S   S  S  S    S S S S S S S S S S S S S S S S  
-------------------------------------------|----------------------------------|
-------------------------------------------|----------------------------------|
-------------------------------------------|----------------------------------|
-------------------------------------------|----------------------------------|
--0-0-0---0---0----------------------------|--0-0-0---0---0---0-0-0---0---0---|
--0-0-0-0-0-0-0-0-12p-0-12p-0-12h-13-13-13-|--0-0-0-0-0-0-0-0-0-0-0-0-0-0-0-0-|


        ^   ^   ^                                              
  S S S S S S S S T  T  T T S  S S  S S  S    S S S S S S S S  
-------------------------------------------|------------------|
------------------5h-6p-5------------------|------------------|
----------------------------7p-6-----------|------------------|
---------------------------------7p-6------|------------------|
--0-0-0---0---0-----------------------8p-7-|--0-0-0-0-0-0-0-0-|
--0-0-0-0-0-0-0-0--------------------------|--0-1-2-0-3-2-0-1-|


                                                                              -\2  
  S S S S S S S S S S S S S S S    S S S S S S S S    S S S S S S S S S S S S S    
--------------------------------|------------------|------------------------------|
--------------------------------|------------------|------------------------------|
--------------------------------|------------------|------------------------------|
--------------------------------|------------------|------------------------------|
--0-0-0-0-0-0-0-0---------0-0-0-|--0-0-0-0-0-0-0-0-|--0-0-0-0-0-0-0-0-------------|
--0-1-2-0-3-2-0-1---------3-2-1-|--1-1-1-1-1-1-1-1-|--1-1-1-1-1-1-1-1---------1---|


  S S S S S S S S    S S S S S S S S S S S S S S S S  
------------------|----------------------------------|
------------------|----------------------------------|
------------------|----------------------------------|
------------------|----------------------------------|
--0-0-0-0-0-0-0-0-|--0-0-0-0-0-0-0-0---0-0-0-0-0-0-0-|
--1-1-1-1-1-1-1-1-|--1-1-1-1-1-1-1-1---0-1-0-3-2-0-1-|


  S S S S S S S S T T T T T T T T T T T T T    S S S S S S S S S S S S S S S  
--------------------------------------------|--------------------------------|
--------------------------------------------|--------------------------------|
--------------------------------------------|--------------------------------|
--------------------------------------------|--------------------------------|
--0-0-0-0-0-0-0-0-----0-0-0---0-0-0---0-0-0-|--0-0-0-0-0-0-0-0---------------|
--0-0-0-0-0-0-0-0-----0-0-0---0-0-0---0-0-0-|--0-0-0-0-0-0-0-0---0-0-0-0---0-|


  S S S S S S S S T T T T T T T T T T T T T    S S S S S S S S S S S S S S S  
--------------------------------------------|--------------------------------|
--------------------------------------------|--------------------------------|
--------------------------------------------|--------------------------------|
--------------------------------------------|--------------------------------|
--0-0-0-0-0-0-0-0-----0-0-0---0-0-0---0-0-0-|--0-0-0-0-0-0-0-0---------------|
--0-0-0-0-0-0-0-0-----0-0-0---0-0-0---0-0-0-|--0-0-0-0-0-0-0-0---0-0-0-0---0-|


  S S S S S S S S T T T T T T T T T T T T T    S S S S S S S S S S S S S S S  
--------------------------------------------|--------------------------------|
--------------------------------------------|--------------------------------|
--------------------------------------------|--------------------------------|
--------------------------------------------|--------------------------------|
--0-0-0-0-0-0-0-0-----0-0-0---0-0-0---0-0-0-|--0-0-0-0-0-0-0-0---------------|
--0-0-0-0-0-0-0-0-----0-0-0---0-0-0---0-0-0-|--0-0-0-0-0-0-0-0---0-0-0-0---0-|


  S S S S S S S S T T T T T T T T T T T T T    S S S S S S S S S S S S S S S  
--------------------------------------------|--------------------------------|
--------------------------------------------|--------------------------------|
--------------------------------------------|--------------------------------|
--------------------------------------------|--------------------------------|
--0-0-0-0-0-0-0-0-----0-0-0---0-0-0---0-0-0-|--0-0-0-0-0-0-0-0---------------|
--0-0-0-0-0-0-0-0-----0-0-0---0-0-0---0-0-0-|--0-0-0-0-0-0-0-0---0-0-0-0---0-|


  E  E  E  E  E  E  E  E     S S S S S S S S S S S S S S S S    E  E  E  E  E  E  E  E   
--------------------------|----------------------------------|--5-----------------------|
--------------------------|----------------------------------|--6-----------------------|
--------------------------|----------------------------------|--7-----------------------|
--------------------------|----------------------------------|--------------------------|
--0-----------------------|--0---------------0-0-0-0-0-0-0-0-|--0-----------------------|
--0--------------------1--|--0---------------1-1-1-1-1-1-1-1-|--0--------------------1--|


   S  S S S S S S S S S S S S S S S    S S S S  S S S S S S S S S S S S  
--(5)-------------------------------|-----------------------------------|
--(6)-------------------------------|-----------------------------------|
--(7)-------------------------------|-----------------------------------|
------------------------------------|-----------------------------------|
---0----------------0-0-0-0-0-0-0-0-|--0---0-0------0-----0-0-0-0-0-4-3-|
---0----------------1-1-1-1-1-1-1-1-|--0---0-0-16-0-0-----0-0-0-1-0-4-3-|


  S S S S S S S S S S S S S S S S    S S S S S S S S S S S S S S S S  
----------------------------------|----------------------------------|
----------------------------------|----------------------------------|
----------------------------------|----------------------------------|
----------------------------------|----------------------------------|
----3-3---3-3-4-0---0-0---0-0-4-0-|----0-0---0-0-0---0-0-0---0-0-4-3-|
----3-3---3-3-4-1---1-1---1-1-4-0-|----0-0---0-0-0---0-0-0---1-0-4-3-|


  S S S S S S S S S S S S S S S S    S S S S S S S S S S S S S S S S  
----------------------------------|----------------------------------|
----------------------------------|----------------------------------|
----------------------------------|----------------------------------|
----------------------------------|----------------------------------|
----3-3---3-3-4-0---0-0---0-0-4-0-|----0-0---0-0-0---0-0-0---0-0-4-3-|
----3-3---3-3-4-1---1-1---1-1-4-0-|----0-0---0-0-0---0-0-0---1-0-4-3-|


  S S S S S S S S S S S S S S S S    S S S S S S S S S S S S S S S S  
----------------------------------|----------------------------------|
----------------------------------|----------------------------------|
----------------------------------|----------------------------------|
----------------------------------|----------------------------------|
----3-3---3-3-4-0---0-0---0-0-4-0-|----0-0---0-0-0---0-0-0---0-0-4-3-|
----3-3---3-3-4-1---1-1---1-1-4-0-|----0-0---0-0-0---0-0-0---1-0-4-3-|


  S S S S S S S S S S S S S S S S    S S S S S S S S S S S S S S S   S  
----------------------------------|------5---8-5-----8-5-----8-5-------|
----------------------------------|----6-----------6-------6-----------|
----------------------------------|--7-----7-----7-------7-------7S-10-|
----------------------------------|------------------------------------|
----3-3---3-3-4-0---0-0---0-0-4-0-|------------------------------------|
----3-3---3-3-4-1---1-1---1-1-4-0-|------------------------------------|


  S S S  S  S S  S S  S S  S S  S   S S    S S S S S S S S S S S S S S S   S  
------0----12-0------12-0-12-0-12s-15-0-|------5---8-5-----8-5-----8-5-------|
----8--------------8--------------------|----6-----------6-------6-----------|
--------10------10----------------------|--7-----7-----7-------7-------7S-10-|
----------------------------------------|------------------------------------|
----------------------------------------|------------------------------------|
----------------------------------------|------------------------------------|


  S S S  S  S S  S S  S S  S S  S   S S    S S S S S S S S S S S S S S S   S  
------0----12-0------12-0-12-0-12s-15-0-|------5---8-5-----8-5-----8-5-------|
----8--------------8--------------------|----6-----------6-------6-----------|
--------10------10----------------------|--7-----7-----7-------7-------7S-10-|
----------------------------------------|------------------------------------|
----------------------------------------|------------------------------------|
----------------------------------------|------------------------------------|


  S S S  S  S S  S S  S S  S S  S   S S    S S S S S S S S S S S S S S S   S  
------0----12-0------12-0-12-0-12s-15-0-|------5---8-5-----8-5-----8-5-------|
----8--------------8--------------------|----6-----------6-------6-----------|
--------10------10----------------------|--7-----7-----7-------7-------7S-10-|
----------------------------------------|------------------------------------|
----------------------------------------|------------------------------------|
----------------------------------------|------------------------------------|


  S S S  S  S S  S S  S S  S S  S   S S    S S S S S S S S S S S S S S S   S  
------0----12-0------12-0-12-0-12s-15-0-|------5---8-5-----8-5-----8-5-------|
----8--------------8--------------------|----6-----------6-------6-----------|
--------10------10----------------------|--7-----7-----7-------7-------7S-10-|
----------------------------------------|------------------------------------|
----------------------------------------|------------------------------------|
----------------------------------------|------------------------------------|


  S S S  S  S S  S S  S S  S S  S   S S    S S S S S S S S S S S S S S S   S  
------0----12-0------12-0-12-0-12s-15-0-|------5---8-5-----8-5-----8-5-------|
----8--------------8--------------------|----6-----------6-------6-----------|
--------10------10----------------------|--7-----7-----7-------7-------7S-10-|
----------------------------------------|------------------------------------|
----------------------------------------|------------------------------------|
----------------------------------------|------------------------------------|


  S S S  S  S S  S S  S S  S S  S   S S    S S S S S S S S S S S S S S S   S  
------0----12-0------12-0-12-0-12s-15-0-|------5---8-5-----8-5-----8-5-------|
----8--------------8--------------------|----6-----------6-------6-----------|
--------10------10----------------------|--7-----7-----7-------7-------7S-10-|
----------------------------------------|------------------------------------|
----------------------------------------|------------------------------------|
----------------------------------------|------------------------------------|


  S S S  S  S S  S S  S S  S S  S   S S    S S S S S S S S S S S S S S S   S  
------0----12-0------12-0-12-0-12s-15-0-|------5---8-5-----8-5-----8-5-------|
----8--------------8--------------------|----6-----------6-------6-----------|
--------10------10----------------------|--7-----7-----7-------7-------7S-10-|
----------------------------------------|------------------------------------|
----------------------------------------|------------------------------------|
----------------------------------------|------------------------------------|


  S S S  S  S S  S S  S S  S S  S   S S    S S S S S S S S S S S S S S S   S  
------0----12-0------12-0-12-0-12s-15-0-|------5---8-5-----8-5-----8-5-------|
----8--------------8--------------------|----6-----------6-------6-----------|
--------10------10----------------------|--7-----7-----7-------7-------7S-10-|
----------------------------------------|------------------------------------|
----------------------------------------|------------------------------------|
----------------------------------------|------------------------------------|


  S S S  S  S S  S S  S S  S S  S   S S    S S S S S S S S S S S S S S S   S  
------0----12-0------12-0-12-0-12s-15-0-|------5---8-5-----8-5-----8-5-------|
----8--------------8--------------------|----6-----------6-------6-----------|
--------10------10----------------------|--7-----7-----7-------7-------7S-10-|
----------------------------------------|------------------------------------|
----------------------------------------|------------------------------------|
----------------------------------------|------------------------------------|


  S S S  S  S S  S S  S S  S S  S   S S  
------0----12-0------12-0-12-0-12s-15-0-|
----8--------------8--------------------|
--------10------10----------------------|
----------------------------------------|
----------------------------------------|
----------------------------------------|


  T T T T T T T T T T T T T T T T T T T T T T T T T T T T T T T  
----------------------------------------------------------------|
----------------------------------------------------------------|
----------------------------------------------------------------|
----------------------------------------------------------------|
--0-0-0-0-0-0-0-0-0-0---0-0---0-0---0-0-0-0-0-0-0-0---0-0---0-0-|
--0-0-0-0-0-0-0-0-0-0---0-0---0-0---0-0-0-0-0-0-0-0---0-0---0-0-|


  T T T T T T T T T T T T T T T T T T T T T T T T T  T T T T   
--------------------------------------------------------------|
--------------------------------------------------------------|
--------------------------------------------------------------|
--------------------------------------------------------------|
--0-0-0-0-0-0-0-0-0-0---0-0---0-0---0-0-0-0-0-0-0-3b----------|
--0-0-0-0-0-0-0-0-0-0---0-0---0-0---0-0-0-0-0-0-0----------1b-|


  T T T T T T T T T T T T T T T T T T T T T T T T T T T T T T T  
----------------------------------------------------------------|
----------------------------------------------------------------|
----------------------------------------------------------------|
----------------------------------------------------------------|
--0-0-0-0-0-0-0-0-0-0---0-0---0-0---0-0-0-0-0-0-0-0---0-0---0-0-|
--0-0-0-0-0-0-0-0-0-0---0-0---0-0---0-0-0-0-0-0-0-0---0-0---0-0-|


  T T T T T T T T T T T T T T T T T T T T T T T T  
--------------------------------------------------|
--------------------------------------------------|
--------------------------------------------------|
--------------------------------------------------|
--0-0-0-0-0-0-0-0-0-0---0-0---0-0---0-0-0-0-0-0-0-|
--0-0-0-0-0-0-0-0-0-0---0-0---0-0---0-0-0-0-0-0-0-|


  T T T T T T T T T T T T T T T T T T T T T T T T T T T T T T T  
----------------------------------------------------------------|
----------------------------------------------------------------|
----------------------------------------------------------------|
----------------------------------------------------------------|
--0-0-0-0-0-0-0-0-0-0---0-0---0-0---0-0-0-0-0-0-0-0---0-0---0-0-|
--0-0-0-0-0-0-0-0-0-0---0-0---0-0---0-0-0-0-0-0-0-0---0-0---0-0-|


  T T T T T T T T T T T T T T T T T T T T T T T T T  T T T T   
--------------------------------------------------------------|
--------------------------------------------------------------|
--------------------------------------------------------------|
--------------------------------------------------------------|
--0-0-0-0-0-0-0-0-0-0---0-0---0-0---0-0-0-0-0-0-0-3b----------|
--0-0-0-0-0-0-0-0-0-0---0-0---0-0---0-0-0-0-0-0-0----------1b-|


  T T T T T T T T T T T T T T T T T T T T T T T T T T T T T T T  
----------------------------------------------------------------|
----------------------------------------------------------------|
----------------------------------------------------------------|
----------------------------------------------------------------|
--0-0-0-0-0-0-0-0-0-0---0-0---0-0---0-0-0-0-0-0-0-0---0-0---0-0-|
--0-0-0-0-0-0-0-0-0-0---0-0---0-0---0-0-0-0-0-0-0-0---0-0---0-0-|


  T T T T T T T T T T T T T T T T T T T T T T T T T  T T T T   
--------------------------------------------------------------|
--------------------------------------------------------------|
--------------------------------------------------------------|
--------------------------------------------------------------|
--0-0-0-0-0-0-0-0-0-0---0-0---0-0---0-0-0-0-0-0-0-3b----------|
--0-0-0-0-0-0-0-0-0-0---0-0---0-0---0-0-0-0-0-0-0----------1b-|


  T T T T T T T T T T T T T T T T T T T T T T T T T T T T T T T  
----------------------------------------------------------------|
----------------------------------------------------------------|
----------------------------------------------------------------|
----------------------------------------------------------------|
--0-0-0-0-0-0-0-0-0-0---0-0---0-0---0-0-0-0-0-0-0-0---0-0---0-0-|
--0-0-0-0-0-0-0-0-0-0---0-0---0-0---0-0-0-0-0-0-0-0---0-0---0-0-|


  T T T T T T T T T T T T T T T T T T T T T T T T T  T T T T   
--------------------------------------------------------------|
--------------------------------------------------------------|
--------------------------------------------------------------|
--------------------------------------------------------------|
--0-0-0-0-0-0-0-0-0-0---0-0---0-0---0-0-0-0-0-0-0-6b----------|
--0-0-0-0-0-0-0-0-0-0---0-0---0-0---0-0-0-0-0-0-0----------4b-|


  T T T T T T T T T T T T T T T T T T T T T T T T T T T T T T T  
----------------------------------------------------------------|
----------------------------------------------------------------|
----------------------------------------------------------------|
----------------------------------------------------------------|
--0-0-0-0-0-0-0-0-0-0---0-0---0-0---0-0-0-0-0-0-0-0---0-0---0-0-|
--0-0-0-0-0-0-0-0-0-0---0-0---0-0---0-0-0-0-0-0-0-0---0-0---0-0-|


  T T T T T T T T T T T T T T T T T T T T T T T T T  T T T T   
--------------------------------------------------------------|
--------------------------------------------------------------|
--------------------------------------------------------------|
--------------------------------------------------------------|
--0-0-0-0-0-0-0-0-0-0---0-0---0-0---0-0-0-0-0-0-0-6b----------|
--0-0-0-0-0-0-0-0-0-0---0-0---0-0---0-0-0-0-0-0-0----------4b-|


  T T T T T T T T T T T T T T T T T T T T T T T T T T T T T T  
--------------------------------------------------------------|
--------------------------------------------------------------|
--------------------------------------------------------------|
--------------------------------------------------------------|
--0-0-----0-0---------0-0-----0-0-----0-0-0-0-----0-0-----0-0-|
--0-0-----0-0---------0-0-----0-0-----0-0-0-0-----0-0-----0-0-|


  T T T T T T T T T T T T T T T T T T T T T T T T T T T T T T  
--------------------------------------------------------------|
--------------------------------------------------------------|
--------------------------------------------------------------|
--------------------------------------------------------------|
--5-5-----5-5---------5-5-----5-5-----8-8-8-8-----8-8-----8-8-|
--5-5-----5-5---------5-5-----5-5-----8-8-8-8-----8-8-----8-8-|


  T T T T T T T T T T T T T T T T T T T T T T T T T T T T T T  
--------------------------------------------------------------|
--------------------------------------------------------------|
--------------------------------------------------------------|
--------------------------------------------------------------|
--0-0-----0-0---------0-0-----0-0-----0-0-0-0-----0-0-----0-0-|
--0-0-----0-0---------0-0-----0-0-----0-0-0-0-----0-0-----0-0-|


  T T T T T T T T T T T T T T T T T T T T T T T T T T T T T T  
--------------------------------------------------------------|
--------------------------------------------------------------|
--------------------------------------------------------------|
--------------------------------------------------------------|
--5-5-----5-5---------5-5-----5-5-----8-8-8-8-----8-8-----8-8-|
--5-5-----5-5---------5-5-----5-5-----8-8-8-8-----8-8-----8-8-|


   S  S  S  S  S   S  S  S  S  S   S  S  S   S   S   S  
-------------------------------------------------------|
-------------------------------------------------------|
-------------------------------------------------------|
--12p-0-12p-0-12h-15p-0-12p-0-12h-15p-0-12S-10s-10s-12-|
-------------------------------------------------------|
-------------------------------------------------------|


  S  S S  S S  S  S S  S S   S  S  S   S  S  
--------------------------------------------|
--------------------------------------------|
--------------------------------------------|
--7p-0-7p-0-7h-8p-0-8p-0-8h-10p-0-10s-12-12-|
--------------------------------------------|
--------------------------------------------|


   S  S  S  S  S   S  S  S  S  S  S  S  S  S  S  S   
------------------------------------17-13-----------|
---------------------------------13-------13--------|
------------------------------14-------------14-----|
--12p-0-12p-0-12h-15p-0-12-15-------------------15s-|
----------------------------------------------------|
----------------------------------------------------|


  S  S S  S S  S  S S  S S   S  S  S   S  S  
--------------------------------------------|
--------------------------------------------|
--------------------------------------------|
--7p-0-7p-0-7h-8p-0-8p-0-8h-10p-0-10s-12-12-|
--------------------------------------------|
--------------------------------------------|


   S  S  S  S  S   S  S  S  S  S   S  S  S   S   S   S  
-------------------------------------------------------|
-------------------------------------------------------|
-------------------------------------------------------|
--12p-0-12p-0-12h-15p-0-12p-0-12h-15p-0-12S-10s-10s-12-|
-------------------------------------------------------|
-------------------------------------------------------|


  S  S S  S S  S  S S  S S   S  S  S   S  S  
--------------------------------------------|
--------------------------------------------|
--------------------------------------------|
--7p-0-7p-0-7h-8p-0-8p-0-8h-10p-0-10s-12-12-|
--------------------------------------------|
--------------------------------------------|


   S  S  S  S  S   S  S  S  S  S  S  S  S  S  S  S   
------------------------------------17-13-----------|
---------------------------------13-------13--------|
------------------------------14-------------14-----|
--12p-0-12p-0-12h-15p-0-12-15-------------------15s-|
----------------------------------------------------|
----------------------------------------------------|


  S  S S  S S  S  S S  S S   S  S  S   S  S    E            
--------------------------------------------|-----|-------||
--------------------------------------------|-----|-------||
--------------------------------------------|-----|-------||
--7p-0-7p-0-7h-8p-0-8p-0-8h-10p-0-10s-12-12-|-----|-------||
--------------------------------------------|-----|-------||
--------------------------------------------|--0--|-------||




Duration Legend
---------------
W - whole
H - half
Q - quarter
E - 8th
S - 16th
T - 32nd
X - 64th
. - note dotted
|-n-|  - n-tuplets


Tablature Legend
----------------
L - tied note
x - dead note
g - grace note
(n) - ghost note
> - accentuded note
NH - natural harmonic
AH - artificial harmonic
TH - tapped harmonic
SH - semi harmonic
PH - pitch harmonic
h - hammer on
p - pull off
b - bend
br - bendRelease
pb - preBend
pbr - preBendRelease
brb - bendReleaseBend
\n/ - tremolo bar dip
\n - tremolo bar dive
-/n - tremolo bar Release up
/n\ - tremolo bar inverted dip
/n - tremolo bar return
-\n - tremolo bar Release down
S - shift slide
s - legato slide
/ -  slide into from below or out of upwards
\ -  slide into from above or out of downwards
~ - vibrato
W - wide vibrato
tr - trill
TP - tremolo picking
T - tapping
S - slap
P - pop
< - fade in
^ - brush up
v - brush down
comments
We did not receive enough feedback on this tab! Please rate:
print report bad tab
1 2 3 4 5
I want to post or [tab]
guest
You may want to rate the tab now too:
select rating
Please do not post tabs as comments. Select "correction" instead!