Oops, an error
Loading. Please wait.

Such Creatures Exist - Jroach Tab

ver1
ver1

Whole song

Interactive

More versions @911Tabs.com
25 views 1 this week
no commentswrite comment
1 2 3 4 5
please rate
add to favorites launch autoscroll
font size
0
reset
Autoscroll
+/-
esc
set tempo
stop
Contributor
Difficulty
Tuning
intermediate
C G C F A D
WARNING: You are trying to view
                                    content from Ultimate-Guitar.com
                                    in an unauthorized application,
                                    which is prohibited.

                                    Please use an official Ultimate
                                    Guitar Tabs application for iPhone,
                                    iPad or Android to access legitimate
                                    chords, guitar, bass, and drum tabs
                                    from Ultimate-Guitar.com database.

                                    Type "ultimate guitar tabs" in Apple
                                    App Store's or Android Market's
                                    search to find the application.
Guitar 1
             T T T T T T T T T T T T T T T T T T T T T T T T T T T T T T T  
D||-------|----------------------------------------------------------------|
A||-------|----------------------------------------------------------------|
F||-------|----------------------------------------------------------------|
C||-------|----------------------------------------------------------------|
G||-------|--0-0-0-------0-----------0-0-0-------0-----------0-0-0---0-0-0-|
C||-------|--0-0-0-------0-----------0-0-0-------0-----------0-0-0---0-0-0-|


  T T T T T T T T T T T T T T T T T T T T T T T T T T T T T T T  
----------------------------------------------------------------|
----------------------------------------------------------------|
----------------------------------------------------------------|
----------------------------------------------------------------|
--0-0-0-------0-----------0-0-0-------0-----------0-0-0---0-0-0-|
--0-0-0-------0-----------0-0-0-------0-----------0-0-0---0-0-0-|


  T T T T T T T T T T T T T T T T T T T T T T T T T T T T T T T  
----------------------------------------------------------------|
----------------------------------------------------------------|
----------------------------------------------------------------|
----------------------------------------------------------------|
--0-0-0-------0-----------0-0-0-------0-----------0-0-0---0-0-0-|
--0-0-0-------0-----------0-0-0-------0-----------0-0-0---0-0-0-|


  T T T T T T T T T T T T T T T T T T T T T T T T T T T T T T T  
----------------------------------------------------------------|
----------------------------------------------------------------|
----------------------------------------------------------------|
----------------------------------------------------------------|
--0-0-0-------0-----------0-0-0-------0-----------0-0-0---0-0-0-|
--0-0-0-------0-----------0-0-0-------0-----------0-0-0---0-0-0-|


  T T T T T T T T T T T T T T T T T T T T T T T T T T T T T T T  
----------------------------------------------------------------|
----------------------------------------------------------------|
----------------------------------------------------------------|
----------------------------------------------------------------|
--0-0-0-------0-----------0-0-0-------0-----------0-0-0---0-0-0-|
--0-0-0-------0-----------0-0-0-------0-----------0-0-0---0-0-0-|


  T T T T T T T T T T T T T T T T T T T T T T T T T T T T T T T  
----------------------------------------------------------------|
----------------------------------------------------------------|
----------------------------------------------------------------|
----------------------------------------------------------------|
--0-0-0-------0-----------0-0-0-------0-----------0-0-0---0-0-0-|
--0-0-0-------0-----------0-0-0-------0-----------0-0-0---0-0-0-|


  T T T T T T T T T T T T T T T T T T T T T T T T T T T T T T T  
----------------------------------------------------------------|
----------------------------------------------------------------|
----------------------------------------------------------------|
----------------------------------------------------------------|
--0-0-0-------0-----------0-0-0-------0-----------0-0-0---0-0-0-|
--0-0-0-------0-----------0-0-0-------0-----------0-0-0---0-0-0-|


  T T T T T T T T T T T T T T T T T T T T T T T T T T T T T T T  
----------------------------------------------------------------|
----------------------------------------------------------------|
----------------------------------------------------------------|
----------------------------------------------------------------|
--0-0-0-------0-----------0-0-0-------0-----------0-0-0---0-0-0-|
--0-0-0-------0-----------0-0-0-------0-----------0-0-0---0-0-0-|


  T T T T T T T T T T T T T T T T T T T T T T T T T T T T T T T  
----------------------------------------------------------------|
----------------------------------------------------------------|
----------------------------------------------------------------|
----------------------------------------------------------------|
--0-0-0-------0-----------0-0-0-------0-----------0-0-0---0-0-0-|
--0-0-0-------0-----------0-0-0-------0-----------0-0-0---0-0-0-|


  T T T T T T T T T T T T T T T T T T T T T T T T T T T T T T T  
----------------------------------------------------------------|
----------------------------------------------------------------|
----------------------------------------------------------------|
----------------------------------------------------------------|
--0-0-0-------0-----------0-0-0-------0-----------0-0-0---0-0-0-|
--0-0-0-------0-----------0-0-0-------0-----------0-0-0---0-0-0-|


  T T T T T T T T T T T T T T T T T T T T T T T T T T T T T T T  
----------------------------------------------------------------|
----------------------------------------------------------------|
----------------------------------------------------------------|
----------------------------------------------------------------|
--8-8-8-------8-----------8-8-8-------8-----------8-8-8---8-8-8-|
--8-8-8-------8-----------8-8-8-------8-----------8-8-8---8-8-8-|


  T T T T T T T T T T T T T T T T T T T T T T T T T T T T T T T  
----------------------------------------------------------------|
----------------------------------------------------------------|
----------------------------------------------------------------|
----------------------------------------------------------------|
--5-5-5-------5-----------5-5-5-------5-----------5-5-5---5-5-5-|
--5-5-5-------5-----------5-5-5-------5-----------5-5-5---5-5-5-|


  T T T T T T T T T T T T T T T T T T T T T T T T T T T T T T T  
----------------------------------------------------------------|
----------------------------------------------------------------|
----------------------------------------------------------------|
----------------------------------------------------------------|
--0-0-0-------0-----------0-0-0-------0-----------0-0-0---0-0-0-|
--0-0-0-------0-----------0-0-0-------0-----------0-0-0---0-0-0-|


  T T T T T T T T T T T T T T T T T T T T T T T T T T T T T T T  
----------------------------------------------------------------|
----------------------------------------------------------------|
----------------------------------------------------------------|
----------------------------------------------------------------|
--0-0-0-------0-----------0-0-0-------0-----------0-0-0---0-0-0-|
--0-0-0-------0-----------0-0-0-------0-----------0-0-0---0-0-0-|


  T T T T T T T T T T T T T T T T T T T T T T T T T T T T T T T  
----------------------------------------------------------------|
----------------------------------------------------------------|
----------------------------------------------------------------|
----------------------------------------------------------------|
--8-8-8-------8-----------8-8-8-------8-----------8-8-8---8-8-8-|
--8-8-8-------8-----------8-8-8-------8-----------8-8-8---8-8-8-|


  T T T T T T T T T T T T T T T T T T T T T T T T T T T T T T T  
----------------------------------------------------------------|
----------------------------------------------------------------|
----------------------------------------------------------------|
----------------------------------------------------------------|
--5-5-5-------5-----------5-5-5-------5-----------5-5-5---5-5-5-|
--5-5-5-------5-----------5-5-5-------5-----------5-5-5---5-5-5-|


  T T T T T T T T T T T T T T      T T T T T T T T T T T T T T T T S  S S  S S  S S  S  
------------------------------||-------------------------------------------------------|
------------------------------||-------------------------------------------------------|
------------------------------||*------------------------------------------------------|
------------------------------||*--------------------------------------------8p---7p-0-|
--0-------0---0-0-0---0-------||---0-------0---0-0-0---0-----------8p---7p-0-----------|
--0-------0---0-0-0---0-------||---0-------0---0-0-0---0-------------------------------|


  T T T T T T T T T T T T T T T T S  S S S   S S  S   S  
--------------------------------------------------------|
--------------------------------------------------------|
--------------------------------------------------------|
----------------------------------8p---7---------10h-12-|
--8-------8---8-8-8---8------------------8h-10----------|
--8-------8---8-8-8---8---------------------------------|


  T T T T T T T T T T T T T T T T S  S S  S S  S S  S  
------------------------------------------------------|
------------------------------------------------------|
------------------------------------------------------|
--------------------------------------------8p---7p-0-|
--0-------0---0-0-0---0-----------8p---7p-0-----------|
--0-------0---0-0-0---0-------------------------------|


  T T T T T T T T T T T T T T T T  T T T T  T T  T  T  T T  T T T T T T    
-------------------------------------------------------------------------||
-------------------------------------------------------------------------||
------------------------------------------------------------------------*||
------------------------------------------------------------------------*||
--8-------8---8-8-8---8-----------10-------10---10-10-10---10------------||
--8-------8---8-8-8---8-----------10-------10---10-10-10---10------------||


   S S S S S S S S S S S S S S S S    S S S  S S S S S  S S  S  S  S  S  S  S  
-----------------------------------|------------------------------------------|
-----------------------------------|------------------------------------------|
*----------------------------------|------------------------------------------|
*------------------------8---7-----|--------10---8-------------14----12-------|
---------8---7---------------------|------------------------------------------|
---0---0---0---0-0-5---5---5---5-5-|--8---8----8---8-8-10---10----10----10-10-|


  S S S S S S S S S S S S S S S S    S S S  S S S S S S S S  S S S  S S    
----------------------------------|--------------------------------------||
----------------------------------|--------------------------------------||
----------------------------------|-----------------------------------7-*||
------------------------8---7-----|--------10---8--------------7-8-10---*||
--------8---7---------------------|-------------------7---8-10-----------||
--0---0---0---0-0-5---5---5---5-5-|--8---8----8---8-8--------------------||


  S S S S S S S S S S S S S S S S    S S S S S S S S S S S S  S  S  S  S  
----------------------------------|--------------------------------------|
----------------------------------|--------------------------------------|
----------------------------------|--------------------------------------|
--8---------8---8---------8---7---|--8---------8---8---------------------|
------5-8-----------5-8-----------|------5-8---------8-8-8-8-10-10-10-10-|
----0-----0---0---0-----0---0---0-|----0-----0---0---8-8-8-8-10-10-10-10-|


  S S S S S S S S S S S S S S S S    S S S S S S S S S S S S  S  S  S  S  
----------------------------------|--------------------------------------|
----------------------------------|--------------------------------------|
----------------------------------|--------------------------------------|
--8---------8---8---------8---7---|--8---------8---8---------------------|
------5-8-----------5-8-----------|------5-8---------8-8-8-8-10-10-10-10-|
----0-----0---0---0-----0---0---0-|----0-----0---0---8-8-8-8-10-10-10-10-|


  T T T T T T T T T T T T T T T T T T T T T T T T T T T T T  
------------------------------------------------------------|
------------------------------------------------------------|
------------------------------------------------------------|
------------------------------------------------------------|
--0-0-0-----------0-------0-------0-0-0-------0-------0-0-0-|
--0-0-0-----------0-------0-------0-0-0-------0-------0-0-0-|


  T T T T T T T T T T T T T T T T T T T T T T T T T T T T T  
------------------------------------------------------------|
------------------------------------------------------------|
------------------------------------------------------------|
------------------------------------------------------------|
--0-0-0-----------0-------0-------0-0-0-------0-------0-0-0-|
--0-0-0-----------0-------0-------0-0-0-------0-------0-0-0-|


  T T T T T T T T T T T T T T T T T T T T T T T T T T T T T  
------------------------------------------------------------|
------------------------------------------------------------|
------------------------------------------------------------|
------------------------------------------------------------|
--0-0-0-----------0-------0-------0-0-0-------0-------0-0-0-|
--0-0-0-----------0-------0-------0-0-0-------0-------0-0-0-|


  T T T T T T T T T T T T T T T T T T T T T T T T T T T T T  
------------------------------------------------------------|
------------------------------------------------------------|
------------------------------------------------------------|
------------------------------------------------------------|
--0-0-0-----------0-------0-------0-0-0-------0-------0-0-0-|
--0-0-0-----------0-------0-------0-0-0-------0-------0-0-0-|


  S S S S S S S S  S  S  S  S  S  S  S  S    S S S S S S S S S S S S S S S S  
------------------------------------------|----------------------------------|
------------------------------------------|----------------------------------|
------------------------------------------|----------------------------------|
------------------------------------------|----------------------------------|
--8-8-8-8-8-8-8-8-10-10-10-10-10-10-10-10-|--0-0-0-0-0-0-0-0-3-3-3-3-3-3-3-3-|
--8-8-8-8-8-8-8-8-10-10-10-10-10-10-10-10-|--0-0-0-0-0-0-0-0-3-3-3-3-3-3-3-3-|


  S S S S S S S S  S  S  S  S  S  S  S  S  
------------------------------------------|
------------------------------------------|
------------------------------------------|
------------------------------------------|
--8-8-8-8-8-8-8-8-10-10-10-10-10-10-10-10-|
--8-8-8-8-8-8-8-8-10-10-10-10-10-10-10-10-|


  T T T T T T T T T T T T T T T T T T T T T T T T T T T T T  
------------------------------------------------------------|
------------------------------------------------------------|
------------------------------------------------------------|
------------------------------------------------------------|
--0-0-0-----------0-------0-------0-0-0-------0-------0-0-0-|
--0-0-0-----------0-------0-------0-0-0-------0-------0-0-0-|


  S S S S S S S S  S  S  S  S  S  S  S  S    S S S S S S S S S S S S S S S S  
------------------------------------------|----------------------------------|
------------------------------------------|----------------------------------|
------------------------------------------|----------------------------------|
------------------------------------------|----------------------------------|
--8-8-8-8-8-8-8-8-10-10-10-10-10-10-10-10-|--0-0-0-0-0-0-0-0-3-3-3-3-3-3-3-3-|
--8-8-8-8-8-8-8-8-10-10-10-10-10-10-10-10-|--0-0-0-0-0-0-0-0-3-3-3-3-3-3-3-3-|


  S S S S S S S S  S  S  S  S  S  S  S  S  
------------------------------------------|
------------------------------------------|
------------------------------------------|
------------------------------------------|
--8-8-8-8-8-8-8-8-10-10-10-10-10-10-10-10-|
--8-8-8-8-8-8-8-8-10-10-10-10-10-10-10-10-|


  T T T T T T T T T T T T T T T T T T T T T T T T T T T T T  
------------------------------------------------------------|
------------------------------------------------------------|
------------------------------------------------------------|
------------------------------------------------------------|
--0-0-0-----------0-------0-------0-0-0-------0-------0-0-0-|
--0-0-0-----------0-------0-------0-0-0-------0-------0-0-0-|


  T T T T T T T T T T T T T T T T T T T T T T T T T T T T T  
------------------------------------------------------------|
------------------------------------------------------------|
------------------------------------------------------------|
------------------------------------------------------------|
--0-0-0-----------0-------0-------0-0-0-------0-------0-0-0-|
--0-0-0-----------0-------0-------0-0-0-------0-------0-0-0-|


  T T T T T T T T T T T T T T T T T T T T T T T T T T T T T  
------------------------------------------------------------|
------------------------------------------------------------|
------------------------------------------------------------|
------------------------------------------------------------|
--0-0-0-----------0-------0-------0-0-0-------0-------0-0-0-|
--0-0-0-----------0-------0-------0-0-0-------0-------0-0-0-|


  T T T T T T T T T T T T T T T T T T T T T T T T T T T T T  
------------------------------------------------------------|
------------------------------------------------------------|
------------------------------------------------------------|
------------------------------------------------------------|
--0-0-0-----------0-------0-------0-0-0-------0-------0-0-0-|
--0-0-0-----------0-------0-------0-0-0-------0-------0-0-0-|


    S S S S S S S S S S S S S S S S    S S S  S S S S S  S S  S  S  S  S  S  S  
|-----------------------------------|------------------------------------------|
|-----------------------------------|------------------------------------------|
|*----------------------------------|------------------------------------------|
|*------------------------8---7-----|--------10---8-------------14----12-------|
|---------8---7---------------------|------------------------------------------|
|---0---0---0---0-0-5---5---5---5-5-|--8---8----8---8-8-10---10----10----10-10-|


  S S S S S S S S S S S S S S S S    S S S  S S S S S S S S  S S S  S S    
----------------------------------|--------------------------------------||
----------------------------------|--------------------------------------||
----------------------------------|-----------------------------------7-*||
------------------------8---7-----|--------10---8--------------7-8-10---*||
--------8---7---------------------|-------------------7---8-10-----------||
--0---0---0---0-0-5---5---5---5-5-|--8---8----8---8-8--------------------||


  S S S S S S S S S S S S    T T T T T T T T T T T T T T T T T T T T T T T T T T T T T  
--------------------------|------------------------------------------------------------|
--------------------------|------------------------------------------------------------|
--------------------------|------------------------------------------------------------|
------------------------5-|------------------------------------------------------------|
------------------5-7-8---|--0-0-0-0-0-0-0-0-0-------0---0---0-0-0---0---0---0-0-0-0-0-|
--------------------------|--0-0-0-0-0-0-0-0-0-------0---0---0-0-0---0---0---0-0-0-0-0-|


  T T T T T T T T T T T T T T T T T T T T T T T T T T T T T  
------------------------------------------------------------|
------------------------------------------------------------|
------------------------------------------------------------|
------------------------------------------------------------|
--0-0-0-0-0-0-0-0-0-------0---0---0-0-0---0---0---0-0-0-0-0-|
--0-0-0-0-0-0-0-0-0-------0---0---0-0-0---0---0---0-0-0-0-0-|


  T T T T T T T T T T T T T T T T T T T T T T T T T T T T T  
------------------------------------------------------------|
------------------------------------------------------------|
------------------------------------------------------------|
------------------------------------------------------------|
--0-0-0-0-0-0-0-0-0-------0---0---0-0-0---0---0---0-0-0-0-0-|
--0-0-0-0-0-0-0-0-0-------0---0---0-0-0---0---0---0-0-0-0-0-|


  T T T T T T T T T T T T T T T T T T T T T T T T T T T T T  
------------------------------------------------------------|
------------------------------------------------------------|
------------------------------------------------------------|
------------------------------------------------------------|
--0-0-0-0-0-0-0-0-0-------0---0---0-0-0---0---0---0-0-0-0-0-|
--0-0-0-0-0-0-0-0-0-------0---0---0-0-0---0---0---0-0-0-0-0-|


  T T T T T T T T T T T T T T T T T T T T T T T T T T T T T  
------------------------------------------------------------|
------------------------------------------------------------|
------------------------------------------------------------|
------------------------------------------------------------|
--0-0-0---0-0-0-------0-----0-----0-0-0-------0-------0-0-0-|
--1-1-1---1-1-1-------1-----1-----1-1-1-------1-------1-1-1-|


  T T T T T T T T T T T T T T T T T T T T T T T T T T T T T  
------------------------------------------------------------|
------------------------------------------------------------|
------------------------------------------------------------|
------------------------------------------------------------|
--0-0-0---0-0-0-------0-----0-----0-0-0-------0-------0-0-0-|
--1-1-1---1-1-1-------1-----1-----1-1-1-------1-------1-1-1-|


  T T T T T T T T T T T T T T T T T T T T T T T T T T T T T  
------------------------------------------------------------|
------------------------------------------------------------|
------------------------------------------------------------|
------------------------------------------------------------|
--0-0-0-0-0-0-0-0-0-------0---0---0-0-0---0---0---0-0-0-0-0-|
--0-0-0-0-0-0-0-0-0-------0---0---0-0-0---0---0---0-0-0-0-0-|


  T T T T T T T T T T T T T T T T T T T T T T T T T T T T T                 
------------------------------------------------------------|----|----|----|
------------------------------------------------------------|----|----|----|
------------------------------------------------------------|----|----|----|
------------------------------------------------------------|----|----|----|
--0-0-0-0-0-0-0-0-0-------0---0---0-0-0---0---0---0-0-0-0-0-|----|----|----|
--0-0-0-0-0-0-0-0-0-------0---0---0-0-0---0---0---0-0-0-0-0-|----|----|----|


  S S S S S S S S S S S S T T T T T T T    S S S S S S S S S S S S  
----------------------------------------|--------------------------|
----------------------------------------|--------------------------|
----------------------------------------|--------------------------|
----------------------------------------|--------------------------|
--0-0-0-0-----0-0-0-0-----0-0-0---0-0-0-|--0-0-0-0-----0-0-0-0-----|
--0-0-0-0-----0-0-0-0-----0-0-0---0-0-0-|--0-0-0-0-----0-0-0-0-----|


  S S S S S S S S S S S S T T T T T T T    S S S S S S S S S S S S T T T T T T T  
----------------------------------------|----------------------------------------|
----------------------------------------|----------------------------------------|
----------------------------------------|----------------------------------------|
----------------------------------------|----------------------------------------|
--0-0-0-0-----0-0-0-0-----0-0-0---0-0-0-|--0-0-0-0-----0-0-0-0-------------0-0-0-|
--0-0-0-0-----0-0-0-0-----0-0-0---0-0-0-|--0-0-0-0-----0-0-0-0-------------0-0-0-|


  S S S S S S S S S S S S T T T T T T T    S S S S S S S S S S S S T  
----------------------------------------|----------------------------|
----------------------------------------|----------------------------|
----------------------------------------|----------------------------|
----------------------------------------|----------------------------|
--0-0-0-0-----0-0-0-0-----0-0-0---0-0-0-|--0-0-0-0-----0-0-0-0-------|
--0-0-0-0-----0-0-0-0-----0-0-0---0-0-0-|--0-0-0-0-----0-0-0-0-------|


  S S S S S S S S S S S S T T T T T T T    S S S S S S S S S S S S T T T T T T T  
----------------------------------------|----------------------------------------|
----------------------------------------|----------------------------------------|
----------------------------------------|----------------------------------------|
----------------------------------------|----------------------------------------|
--0-0-0-0-----0-0-0-0-----0-0-0---0-0-0-|--0-0-0-0-----0-0-0-0-------------0-0-0-|
--0-0-0-0-----0-0-0-0-----0-0-0---0-0-0-|--0-0-0-0-----0-0-0-0-------------0-0-0-|


  S S S S S S S S S S S S T T T T T T T    S S S S S S S S S S S S T T T T T T T        
----------------------------------------|----------------------------------------|----||
----------------------------------------|----------------------------------------|----||
----------------------------------------|----------------------------------------|----||
----------------------------------------|----------------------------------------|----||
--0-0-0-0-----0-0-0-0-----0-0-0---0-0-0-|--0-0-0-0-----0-0-0-0-------------0-0-0-|----||
--0-0-0-0-----0-0-0-0-----0-0-0---0-0-0-|--0-0-0-0-----0-0-0-0-------------0-0-0-|----||



Guitar 2
             T T T T T T T T T T T T T T T T T T T T T T T T T T T T T T T  
D||-------|----------------------------------------------------------------|
A||-------|----------------------------------------------------------------|
F||-------|----------------------------------------------------------------|
C||-------|----------------------------------------------------------------|
G||-------|--0-0-0-------0-----------0-0-0-------0-----------0-0-0---0-0-0-|
C||-------|--0-0-0-------0-----------0-0-0-------0-----------0-0-0---0-0-0-|


  T T T T T T T T T T T T T T T T T T T T T T T T T T T T T T T  
----------------------------------------------------------------|
----------------------------------------------------------------|
----------------------------------------------------------------|
----------------------------------------------------------------|
--0-0-0-------0-----------0-0-0-------0-----------0-0-0---0-0-0-|
--0-0-0-------0-----------0-0-0-------0-----------0-0-0---0-0-0-|


  T T T T T T T T T T T T T T T T T T T T T T T T T T T T T T T  
----------------------------------------------------------------|
----------------------------------------------------------------|
----------------------------------------------------------------|
----------------------------------------------------------------|
--0-0-0-------0-----------0-0-0-------0-----------0-0-0---0-0-0-|
--0-0-0-------0-----------0-0-0-------0-----------0-0-0---0-0-0-|


  T T T T T T T T T T T T T T T T T T T T T T T T T T T T T T T  
----------------------------------------------------------------|
----------------------------------------------------------------|
----------------------------------------------------------------|
----------------------------------------------------------------|
--0-0-0-------0-----------0-0-0-------0-----------0-0-0---0-0-0-|
--0-0-0-------0-----------0-0-0-------0-----------0-0-0---0-0-0-|


  T T T T T T T T T T T T T T T T T T T T T T T T T T T T T T T  
----------------------------------------------------------------|
----------------------------------------------------------------|
----------------------------------------------------------------|
----------------------------------------------------------------|
--0-0-0-------0-----------0-0-0-------0-----------0-0-0---0-0-0-|
--0-0-0-------0-----------0-0-0-------0-----------0-0-0---0-0-0-|


  T T T T T T T T T T T T T T T T T T T T T T T T T T T T T T T  
----------------------------------------------------------------|
----------------------------------------------------------------|
----------------------------------------------------------------|
----------------------------------------------------------------|
--0-0-0-------0-----------0-0-0-------0-----------0-0-0---0-0-0-|
--0-0-0-------0-----------0-0-0-------0-----------0-0-0---0-0-0-|


  T T T T T T T T T T T T T T T T T T T T T T T T T T T T T T T  
----------------------------------------------------------------|
----------------------------------------------------------------|
----------------------------------------------------------------|
----------------------------------------------------------------|
--0-0-0-------0-----------0-0-0-------0-----------0-0-0---0-0-0-|
--0-0-0-------0-----------0-0-0-------0-----------0-0-0---0-0-0-|


  T T T T T T T T T T T T T T T T T T T T T T T T T T T T T T T  
----------------------------------------------------------------|
----------------------------------------------------------------|
----------------------------------------------------------------|
----------------------------------------------------------------|
--0-0-0-------0-----------0-0-0-------0-----------0-0-0---0-0-0-|
--0-0-0-------0-----------0-0-0-------0-----------0-0-0---0-0-0-|


   S  S S  S   S S  S   S S  S   S S  S  S  S  S  
-------------------------------------------------|
-------------------------------------------------|
-------------------------------------------------|
--12p-0-0-15p-14-0-17p-15-0-14h-15-0-12p-0-12p-0-|
-------------------------------------------------|
-------------------------------------------------|


   S  S S  S   S S  S   S S  S   S S  S  S  S  S  
-------------------------------------------------|
-------------------------------------------------|
-------------------------------------------------|
--12p-0-0-15p-14-0-17p-15-0-14h-15-0-12p-0-12p-0-|
-------------------------------------------------|
-------------------------------------------------|


   S  S S  S   S S  S   S S  S   S S  S  S  S  S  
-------------------------------------------------|
-------------------------------------------------|
-------------------------------------------------|
--12p-0-0-15p-14-0-17p-15-0-14h-15-0-12p-0-12p-0-|
-------------------------------------------------|
-------------------------------------------------|


   S  S S  S   S S  S   S S  S   S S  T   T   T  T   T   T  
-----------------------------------------------------------|
-----------------------------------------------------------|
------------------------------------------------14h-16h-17-|
--12p-0-0-15p-14-0-17p-15-0-14h-15-0-14h-15h-17------------|
-----------------------------------------------------------|
-----------------------------------------------------------|


   S  S S  S   S S  S   S S  S   S S  S  S  S  S  
-------------------------------------------------|
-------------------------------------------------|
-------------------------------------------------|
--12p-0-0-15p-14-0-17p-15-0-14h-15-0-12p-0-12p-0-|
-------------------------------------------------|
-------------------------------------------------|


   S  S S  S   S S  S   S S  S   S S  S  S  S  S  
-------------------------------------------------|
-------------------------------------------------|
-------------------------------------------------|
--12p-0-0-15p-14-0-17p-15-0-14h-15-0-12p-0-12p-0-|
-------------------------------------------------|
-------------------------------------------------|


   S  S S  S   S S  S   S S  S   S S  S  S  S  S  
-------------------------------------------------|
-------------------------------------------------|
-------------------------------------------------|
--12p-0-0-15p-14-0-17p-15-0-14h-15-0-12p-0-12p-0-|
-------------------------------------------------|
-------------------------------------------------|


   S  S S  S   S S  S   S S  S   S S  T   T   T  T   T   T    T T T T T T T T T T T T  
-----------------------------------------------------------|--------------------------|
-----------------------------------------------------------|--------------------------|
------------------------------------------------14h-16h-17-|--------------------------|
--12p-0-0-15p-14-0-17p-15-0-14h-15-0-14h-15h-17------------|--------------------------|
-----------------------------------------------------------|--0-------0---0-0-0---0---|
-----------------------------------------------------------|--0-------0---0-0-0---0---|


    T T T T T T T T T T T T T T T T  S  S  S  S  S  S  S  S  
|-----------------------------------------------------------|
|-----------------------------------------------------------|
|*----------------------------------------------------------|
|*----------------------------------------------12p---10p-0-|
|---0-------0---0-0-0---0-----------12p---10p-0-------------|
|---0-------0---0-0-0---0-----------------------------------|


  T T T T T T T T T T T T T T T T  S  S  S  S   S S  S   S  
-----------------------------------------------------------|
-----------------------------------------------------------|
-----------------------------------------------------------|
----------------------------------12p---10----------14h-15-|
--8-------8---8-8-8---8--------------------12h-13----------|
--8-------8---8-8-8---8------------------------------------|


  T T T T T T T T T T T T T T T T  S  S  S  S  S  S  S  S  
----------------------------------------------------------|
----------------------------------------------------------|
----------------------------------------------------------|
----------------------------------------------12p---10p-0-|
--0-------0---0-0-0---0-----------12p---10p-0-------------|
--0-------0---0-0-0---0-----------------------------------|


  T T T T T T T T T T T T T T T T  T T T T  T T  T  T  T T  T T T T T T    
-------------------------------------------------------------------------||
-------------------------------------------------------------------------||
------------------------------------------------------------------------*||
------------------------------------------------------------------------*||
--8-------8---8-8-8---8-----------10-------10---10-10-10---10------------||
--8-------8---8-8-8---8-----------10-------10---10-10-10---10------------||


   S S S S S S S S S S S S S S S S    S S S S S S S S  S S  S  S  S  S  S  S  
-----------------------------------|-----------------------------------------|
-----------------------------------|-----------------------------------------|
*------------------------7---5-----|--------9---7-------------12----10-------|
*--------7---5---------------------|-----------------------------------------|
-----------------------------------|-----------------------------------------|
---0---0---0---0-0-5---5---5---5-5-|--8---8---8---8-8-10---10----10----10-10-|


  S S S  S S  S S S S S S S S S S S    S S S S S S S S  S S  S  S  S  S  S  S    
------------------------------------|------------------------------------------||
------------------------------------|------------------------------------------||
--------------------------7---5-----|--------9---7-------------------------10-*||
------------------------------------|-----------------------------10-12-14----*||
--------12---10---------------------|------------------10---12-14--------------||
--0---0----0----0-0-5---5---5---5-5-|--8---8---8---8-8-------------------------||


  S S S S S S S S S S S S S S S S    S S S S S S S S S S S S  S  S  S  S  
----------------------------------|--------------------------------------|
----------------------------------|--------------------------------------|
----------------------------------|--------------------------------------|
--8---------8---8---------8---7---|--8---------8---8---------------------|
------5-8-----------5-8-----------|------5-8---------8-8-8-8-10-10-10-10-|
----0-----0---0---0-----0---0---0-|----0-----0---0---8-8-8-8-10-10-10-10-|


  S S S S S S S S S S S S S S S S    S S S S S S S S S S S S  S  S  S  S  
----------------------------------|--------------------------------------|
----------------------------------|--------------------------------------|
----------------------------------|--------------------------------------|
--8---------8---8---------8---7---|--8---------8---8---------------------|
------5-8-----------5-8-----------|------5-8---------8-8-8-8-10-10-10-10-|
----0-----0---0---0-----0---0---0-|----0-----0---0---8-8-8-8-10-10-10-10-|


  T T T T T T T T T T T T T T T T T T T T T T T T T T T T T  
------------------------------------------------------------|
------------------------------------------------------------|
------------------------------------------------------------|
------------------------------------------------------------|
--0-0-0-----------0-------0-------0-0-0-------0-------0-0-0-|
--0-0-0-----------0-------0-------0-0-0-------0-------0-0-0-|


  T T T T T T T T T T T T T T T T T T T T T T T T T T T T T  
------------------------------------------------------------|
------------------------------------------------------------|
------------------------------------------------------------|
------------------------------------------------------------|
--0-0-0-----------0-------0-------0-0-0-------0-------0-0-0-|
--0-0-0-----------0-------0-------0-0-0-------0-------0-0-0-|


  T T T T T T T T T T T T T T T T T T T T T T T T T T T T T  
------------------------------------------------------------|
------------------------------------------------------------|
------------------------------------------------------------|
------------------------------------------------------------|
--0-0-0-----------0-------0-------0-0-0-------0-------0-0-0-|
--0-0-0-----------0-------0-------0-0-0-------0-------0-0-0-|


  T T T T T T T T T T T T T T T T T T T T T T T T T T T T T  
------------------------------------------------------------|
------------------------------------------------------------|
------------------------------------------------------------|
------------------------------------------------------------|
--0-0-0-----------0-------0-------0-0-0-------0-------0-0-0-|
--0-0-0-----------0-------0-------0-0-0-------0-------0-0-0-|


   S  S  S  S  S  S  S  S  S  S  S  S  S  S  S  S     S  S  S  S  S  S  S  S S S S S S S S S  
--------------------------------------------------|------------------------------------------|
--------------------------------------------------|------------------------------------------|
--12-12-12-12-12-12-12-12-14-14-14-14-14-14-14-14-|--10-10-10-10-10-10-10-10-9-9-9-9-9-9-9-9-|
--------------------------------------------------|------------------------------------------|
--10-10-10-10-10-10-10-10-12-12-12-12-12-12-12-12-|---8--8--8--8--8--8--8--8-7-7-7-7-7-7-7-7-|
--------------------------------------------------|------------------------------------------|


   S  S  S  S  S  S  S  S  S  S  S  S  S  S  S  S  
--------------------------------------------------|
--------------------------------------------------|
--12-12-12-12-12-12-12-12-14-14-14-14-14-14-14-14-|
--------------------------------------------------|
--10-10-10-10-10-10-10-10-12-12-12-12-12-12-12-12-|
--------------------------------------------------|


   S  S  S  S  S  S  S  S  S  S  S  S  S  S  S  S  
--------------------------------------------------|
--------------------------------------------------|
--10-10-10-10-10-10-10-10-10-10-10-10-10-10-10-10-|
--------------------------------------------------|
---8--8--8--8--8--8--8--8--8--8--8--8--8--8--8--8-|
--------------------------------------------------|


   S  S  S  S  S  S  S  S  S  S  S  S  S  S  S  S     S  S  S  S  S  S  S  S S S S S S S S S  
--------------------------------------------------|------------------------------------------|
--------------------------------------------------|------------------------------------------|
--12-12-12-12-12-12-12-12-14-14-14-14-14-14-14-14-|--10-10-10-10-10-10-10-10-9-9-9-9-9-9-9-9-|
--------------------------------------------------|------------------------------------------|
--10-10-10-10-10-10-10-10-12-12-12-12-12-12-12-12-|---8--8--8--8--8--8--8--8-7-7-7-7-7-7-7-7-|
--------------------------------------------------|------------------------------------------|


   S  S  S  S  S  S  S  S  S  S  S  S  S  S  S  S  
--------------------------------------------------|
--------------------------------------------------|
--12-12-12-12-12-12-12-12-14-14-14-14-14-14-14-14-|
--------------------------------------------------|
--10-10-10-10-10-10-10-10-12-12-12-12-12-12-12-12-|
--------------------------------------------------|


  T T T T T T T T T T T T T T T T T T T T T T T T T T T T T  
------------------------------------------------------------|
------------------------------------------------------------|
------------------------------------------------------------|
------------------------------------------------------------|
--0-0-0-----------0-------0-------0-0-0-------0-------0-0-0-|
--0-0-0-----------0-------0-------0-0-0-------0-------0-0-0-|


  T T T T T T T T T T T T T T T T T T T T T T T T T T T T T  
------------------------------------------------------------|
------------------------------------------------------------|
------------------------------------------------------------|
------------------------------------------------------------|
--0-0-0-----------0-------0-------0-0-0-------0-------0-0-0-|
--0-0-0-----------0-------0-------0-0-0-------0-------0-0-0-|


  T T T T T T T T T T T T T T T T T T T T T T T T T T T T T  
------------------------------------------------------------|
------------------------------------------------------------|
------------------------------------------------------------|
------------------------------------------------------------|
--0-0-0-----------0-------0-------0-0-0-------0-------0-0-0-|
--0-0-0-----------0-------0-------0-0-0-------0-------0-0-0-|


  T T T T T T T T T T T T T T T T T T T T T T T T T T T T T  
------------------------------------------------------------|
------------------------------------------------------------|
------------------------------------------------------------|
------------------------------------------------------------|
--0-0-0-----------0-------0-------0-0-0-------0-------0-0-0-|
--0-0-0-----------0-------0-------0-0-0-------0-------0-0-0-|


    S S S S S S S S S S S S S S S S    S S S S S S S S  S S  S  S  S  S  S  S  
|-----------------------------------|-----------------------------------------|
|-----------------------------------|-----------------------------------------|
|*------------------------7---5-----|--------9---7-------------12----10-------|
|*--------7---5---------------------|-----------------------------------------|
|-----------------------------------|-----------------------------------------|
|---0---0---0---0-0-5---5---5---5-5-|--8---8---8---8-8-10---10----10----10-10-|


  S S S  S S  S S S S S S S S S S S    S S S S S S S S  S S  S  S  S  S  S  S    
------------------------------------|------------------------------------------||
------------------------------------|------------------------------------------||
--------------------------7---5-----|--------9---7-------------------------10-*||
------------------------------------|-----------------------------10-12-14----*||
--------12---10---------------------|------------------10---12-14--------------||
--0---0----0----0-0-5---5---5---5-5-|--8---8---8---8-8-------------------------||


  S S S S S S S S S  S  S S    T T T T T T T T T T T T T T T T T T T T T T T T T T T T T  
----------------------------|------------------------------------------------------------|
----------------------------|------------------------------------------------------------|
----------------------------|------------------------------------------------------------|
--------------------------8-|------------------------------------------------------------|
------------------8-10-12---|--0-0-0-0-0-0-0-0-0-------0---0---0-0-0---0---0---0-0-0-0-0-|
----------------------------|--0-0-0-0-0-0-0-0-0-------0---0---0-0-0---0---0---0-0-0-0-0-|


  T T T T T T T T T T T T T T T T T T T T T T T T T T T T T  
------------------------------------------------------------|
------------------------------------------------------------|
------------------------------------------------------------|
------------------------------------------------------------|
--0-0-0-0-0-0-0-0-0-------0---0---0-0-0---0---0---0-0-0-0-0-|
--0-0-0-0-0-0-0-0-0-------0---0---0-0-0---0---0---0-0-0-0-0-|


  T T T T T T T T T T T T T T T T T T T T T T T T T T T T T  
------------------------------------------------------------|
------------------------------------------------------------|
------------------------------------------------------------|
------------------------------------------------------------|
--0-0-0-0-0-0-0-0-0-------0---0---0-0-0---0---0---0-0-0-0-0-|
--0-0-0-0-0-0-0-0-0-------0---0---0-0-0---0---0---0-0-0-0-0-|


  T T T T T T T T T T T T T T T T T T T T T T T T T T T T T  
------------------------------------------------------------|
------------------------------------------------------------|
------------------------------------------------------------|
------------------------------------------------------------|
--0-0-0-0-0-0-0-0-0-------0---0---0-0-0---0---0---0-0-0-0-0-|
--0-0-0-0-0-0-0-0-0-------0---0---0-0-0---0---0---0-0-0-0-0-|


  T T T T T T T T T T T T T T T T T T T T T T T T T T T T T  
------------------------------------------------------------|
------------------------------------------------------------|
------------------------------------------------------------|
------------------------------------------------------------|
--0-0-0---0-0-0-------0-----0-----0-0-0-------0-------0-0-0-|
--1-1-1---1-1-1-------1-----1-----1-1-1-------1-------1-1-1-|


  T T T T T T T T T T T T T T T T T T T T T T T T T T T T T  
------------------------------------------------------------|
------------------------------------------------------------|
------------------------------------------------------------|
------------------------------------------------------------|
--0-0-0---0-0-0-------0-----0-----0-0-0-------0-------0-0-0-|
--1-1-1---1-1-1-------1-----1-----1-1-1-------1-------1-1-1-|


  T T T T T T T T T T T T T T T T T T T T T T T T T T T T T  
------------------------------------------------------------|
------------------------------------------------------------|
------------------------------------------------------------|
------------------------------------------------------------|
--0-0-0-0-0-0-0-0-0-------0---0---0-0-0---0---0---0-0-0-0-0-|
--0-0-0-0-0-0-0-0-0-------0---0---0-0-0---0---0---0-0-0-0-0-|


  T T T T T T T T T T T T T T T T T T T T T T T T T T T T T                 
------------------------------------------------------------|----|----|----|
------------------------------------------------------------|----|----|----|
------------------------------------------------------------|----|----|----|
------------------------------------------------------------|----|----|----|
--0-0-0-0-0-0-0-0-0-------0---0---0-0-0---0---0---0-0-0-0-0-|----|----|----|
--0-0-0-0-0-0-0-0-0-------0---0---0-0-0---0---0---0-0-0-0-0-|----|----|----|


  S S S S S S S S S S S S T T T T T T T    S S S S S S S S S S S S  
----------------------------------------|--------------------------|
----------------------------------------|--------------------------|
----------------------------------------|--------------------------|
----------------------------------------|--------------------------|
--0-0-0-0-----0-0-0-0-----0-0-0---0-0-0-|--0-0-0-0-----0-0-0-0-----|
--0-0-0-0-----0-0-0-0-----0-0-0---0-0-0-|--0-0-0-0-----0-0-0-0-----|


  S S S S S S S S S S S S T T T T T T T    S S S S S S S S S S S S T T T T  
----------------------------------------|----------------------------------|
----------------------------------------|----------------------------------|
----------------------------------------|----------------------------------|
----------------------------------------|----------------------------------|
--0-0-0-0-----0-0-0-0-----0-0-0---0-0-0-|--0-0-0-0-----0-0-0-0-----0-0-0---|
--0-0-0-0-----0-0-0-0-----0-0-0---0-0-0-|--0-0-0-0-----0-0-0-0-----0-0-0---|


  S S S S S S S S S S S S T T T T T T T    S S S S S S S S S S S S T  
----------------------------------------|----------------------------|
----------------------------------------|----------------------------|
----------------------------------------|----------------------------|
----------------------------------------|----------------------------|
--0-0-0-0-----0-0-0-0-----0-0-0---0-0-0-|--0-0-0-0-----0-0-0-0-------|
--0-0-0-0-----0-0-0-0-----0-0-0---0-0-0-|--0-0-0-0-----0-0-0-0-------|


  S S S S S S S S S S S S T T T T T T T    S S S S S S S S S S S S T T T T  
----------------------------------------|----------------------------------|
----------------------------------------|----------------------------------|
----------------------------------------|----------------------------------|
----------------------------------------|----------------------------------|
--0-0-0-0-----0-0-0-0-----0-0-0---0-0-0-|--0-0-0-0-----0-0-0-0-----0-0-0---|
--0-0-0-0-----0-0-0-0-----0-0-0---0-0-0-|--0-0-0-0-----0-0-0-0-----0-0-0---|


  S S S S S S S S S S S S T T T T T T T    S S S S S S S S S S S S T T T T        
----------------------------------------|----------------------------------|----||
----------------------------------------|----------------------------------|----||
----------------------------------------|----------------------------------|----||
----------------------------------------|----------------------------------|----||
--0-0-0-0-----0-0-0-0-----0-0-0---0-0-0-|--0-0-0-0-----0-0-0-0-----0-0-0---|----||
--0-0-0-0-----0-0-0-0-----0-0-0---0-0-0-|--0-0-0-0-----0-0-0-0-----0-0-0---|----||




Duration Legend
---------------
W - whole
H - half
Q - quarter
E - 8th
S - 16th
T - 32nd
X - 64th
. - note dotted
|-n-|  - n-tuplets


Tablature Legend
----------------
L - tied note
x - dead note
g - grace note
(n) - ghost note
> - accentuded note
NH - natural harmonic
AH - artificial harmonic
TH - tapped harmonic
SH - semi harmonic
PH - pitch harmonic
h - hammer on
p - pull off
b - bend
br - bendRelease
pb - preBend
pbr - preBendRelease
brb - bendReleaseBend
\n/ - tremolo bar dip
\n - tremolo bar dive
-/n - tremolo bar Release up
/n\ - tremolo bar inverted dip
/n - tremolo bar return
-\n - tremolo bar Release down
S - shift slide
s - legato slide
/ -  slide into from below or out of upwards
\ -  slide into from above or out of downwards
~ - vibrato
W - wide vibrato
tr - trill
TP - tremolo picking
T - tapping
S - slap
P - pop
< - fade in
^ - brush up
v - brush down
comments
We did not receive enough feedback on this tab! Please rate:
print report bad tab
1 2 3 4 5
I want to post or [tab]
guest
You may want to rate the tab now too:
select rating
Please do not post tabs as comments. Select "correction" instead!