Oops, an error
Loading. Please wait.

Such Creatures Exist - Zombie Throwdown Tab

ver1
ver1

Whole song

Interactive

More versions @911Tabs.com
44 views 1 this week
no commentswrite comment
1 2 3 4 5
please rate
Autoscroll
+/-
esc
set tempo
stop
Contributor
Difficulty
Tuning
intermediate
C G C F A D
Hey! There's an official Ultimate Guitar app which is ideal
for learning songs when you're away from computer. Get the app
WARNING: You are trying to view
                                    content from Ultimate-Guitar.com
                                    in an unauthorized application,
                                    which is prohibited.

                                    Please use an official Ultimate
                                    Guitar Tabs application for iPhone,
                                    iPad or Android to access legitimate
                                    chords, guitar, bass, and drum tabs
                                    from Ultimate-Guitar.com database.

                                    Type "ultimate guitar tabs" in Apple
                                    App Store's or Android Market's
                                    search to find the application.
     Zombie Throwdown                                         


                                                                           Such Creatures Exist
Guitar 1



     S S S S S S S S S S S S S S S S    S S S S S S S S S S S S S S S S    S S S S S  
D||----------------------------------|----------------------------------|------------|
A||----------------------------------|----------------------------------|------------|
F||----------------------------------|----------------------------------|------------|
C||----------------------------------|----------------------------------|------------|
G||--0-0-0-0-0-----------0-------0-0-|--0-------0-------0-0-0-0-0-------|--0-0-0-0-0-|
C||--0-0-0-0-0-----------0-------0-0-|--0-------0-------0-0-0-0-0-------|--0-0-0-0-0-|


  S S S S S S S S S S S S S S S S    S S S S S S S S S S S S S S S S  
----------------------------------|----------------------------------|
----------------------------------|----------------------------------|
----------------------------------|----------------------------------|
----------------------------------|----------------------------------|
----------0-------0-0-0-0-0-------|--0-0-0-0-0-----------0-------0-0-|
----------0-------0-0-0-0-0-------|--0-0-0-0-0-----------0-------0-0-|


  S S S S S S S S S S S S S S S S    S S S S S    S S S S S S S S S S S S S S S S  
----------------------------------|------------|----------------------------------|
----------------------------------|------------|----------------------------------|
----------------------------------|------------|----------------------------------|
----------------------------------|------------|----------------------------------|
--0-------0-------0-0-0-0-0-------|--0-0-0-0-0-|----------0-------0-0-0-0-0-------|
--0-------0-------0-0-0-0-0-------|--0-0-0-0-0-|----------0-------0-0-0-0-0-------|


  S S S S S S S S S S S S S S S S    S S S S S S S S S S S S S S S S    S S S S S  
----------------------------------|----------------------------------|------------|
----------------------------------|----------------------------------|------------|
----------------------------------|----------------------------------|------------|
----------------------------------|----------------------------------|------------|
--0-0-0-0-0-----------0-------0-0-|--0-------0-------0-0-0-0-0-------|--0-0-0-0-0-|
--0-0-0-0-0-----------0-------0-0-|--0-------0-------0-0-0-0-0-------|--0-0-0-0-0-|


  S S S S S S S S S S S S S S S S    S S S S S S S S S S S S S S S S  
----------------------------------|----------------------------------|
----------------------------------|----------------------------------|
----------------------------------|----------------------------------|
----------------------------------|----------------------------------|
----------0-------0-0-0-0-0-------|--0-0-0-0-0-----------0-------0-0-|
----------0-------0-0-0-0-0-------|--0-0-0-0-0-----------0-------0-0-|


  S S S S S S S S S S S S S S S S    S S S S S    S S S S S S S S S S S S S S S S  
----------------------------------|------------|----------------------------------|
----------------------------------|------------|----------------------------------|
----------------------------------|------------|----------------------------------|
----------------------------------|------------|----------------------------------|
--0-------0-------0-0-0-0-0-------|--0-0-0-0-0-|----------0-------0-0-0-0-0-------|
--0-------0-------0-0-0-0-0-------|--0-0-0-0-0-|----------0-------0-0-0-0-0-------|


  E  E  E  E  E  E  E  E     E  E  E  E  E  E  E  E     E  E  E  E  E  E  E  E   
--------------------------|--------------------------|--------------------------|
--------------------------|--------------------------|--------------------------|
--------------------------|--------------------------|--------------------------|
--------------------------|--------------------------|--------------------------|
--0-----0--0-----0--0--0--|--5-----5--5-----5--5--5--|--8-----8--8-----8--8--8--|
--0-----0--0-----0--0--0--|--5-----5--5-----5--5--5--|--8-----8--8-----8--8--8--|


   Q     Q     Q     Q       E  E  E  E  E  E  E  E     E  E  E  E  E  E  E  E   
--------------------------|--------------------------|--------------------------|
--------------------------|--------------------------|--------------------------|
--10----10----10----10----|--------------------------|--------------------------|
--------------------------|--------------------------|--------------------------|
---8-----8-----8-----8----|--0-----0--0-----0--0--0--|--5-----5--5-----5--5--5--|
--------------------------|--0-----0--0-----0--0--0--|--5-----5--5-----5--5--5--|


  E  E  E  E  E  E  E  E      Q     Q     Q     Q       E  E  E  E  E  E  E  E   
--------------------------|--------------------------|--------------------------|
--------------------------|--------------------------|--------------------------|
--------------------------|--10----10----10----10----|--------------------------|
--------------------------|--------------------------|--------------------------|
--8-----8--8-----8--8--8--|---8-----8-----8-----8----|--0-----0--0-----0--0--0--|
--8-----8--8-----8--8--8--|--------------------------|--0-----0--0-----0--0--0--|


  E  E  E  E  E  E  E  E     E  E  E  E  E  E  E  E     Q    Q    Q    Q     
--------------------------|--------------------------|----------------------|
--------------------------|--------------------------|--6----6----6----6----|
--------------------------|--------------------------|--9----9----9----9----|
--------------------------|--------------------------|----------------------|
--5-----5--5-----5--5--5--|--8-----8--8-----8--8--8--|----------------------|
--5-----5--5-----5--5--5--|--8-----8--8-----8--8--8--|----------------------|


  E  E  E  E  E  E  E  E     E  E  E  E  E  E  E  E     E  E  E  E  E  E  E  E   
--------------------------|--------------------------|--------------------------|
--------------------------|--------------------------|--------------------------|
--------------------------|--------------------------|--------------------------|
--------------------------|--------------------------|--------------------------|
--0-----0--0-----0--0--0--|--5-----5--5-----5--5--5--|--8-----8--8-----8--8--8--|
--0-----0--0-----0--0--0--|--5-----5--5-----5--5--5--|--8-----8--8-----8--8--8--|


  Q    Q    Q    Q       S S S S S S S S S S S S S S S S    S S S S S S S S S S S S S S S S  
----------------------|----------------------------------|----------------------------------|
----------------------|----------------------------------|----------------------------------|
----------------------|----------------------------------|----------------------------------|
----------------------|----------------------------------|----------------------------------|
--0----0----0----0----|--0-0-0-0-0-----------0-------0-0-|--0-------0-------0-0-0-0-0-------|
--1----1----1----1----|--0-0-0-0-0-----------0-------0-0-|--0-------0-------0-0-0-0-0-------|


  S S S S S S S S S S S S S S S S    S S S S S S S S S S S S Q     
----------------------------------|-------------------------------|
----------------------------------|--------------------------6----|
----------------------------------|--------------------------9----|
----------------------------------|-------------------------------|
--0-0-0-0-0-----------0-------0-0-|--0-------0-------0-0-0--------|
--0-0-0-0-0-----------0-------0-0-|--0-------0-------0-0-0--------|


  S S S S S S S S S S S S S S S S    S S S S S S S S S S S S S S S S  
----------------------------------|----------------------------------|
----------------------------------|----------------------------------|
----------------------------------|----------------------------------|
----------------------------------|----------------------------------|
--0-0-0-0-0-----------0-------0-0-|--0-------0-------0-0-0-0-0-------|
--0-0-0-0-0-----------0-------0-0-|--0-------0-------0-0-0-0-0-------|


  S S S S S S S S S S S S S S S S    S S S S S S S S S S S S Q     
----------------------------------|-------------------------------|
----------------------------------|--------------------------6----|
----------------------------------|--------------------------9----|
----------------------------------|-------------------------------|
--0-0-0-0-0-----------0-------0-0-|--0-------0-------0-0-0--------|
--0-0-0-0-0-----------0-------0-0-|--0-------0-------0-0-0--------|


  S S S S S S S S S S S S S S S S    S S S S S S S S S S S S S S S S  
----------------------------------|----------------------------------|
----------------------------------|----------------------------------|
----------------------------------|----------------------------------|
----------------------------------|----------------------------------|
--0-0-0-0-0-----------0-------0-0-|--0-------0-------0-0-0-0-0-------|
--0-0-0-0-0-----------0-------0-0-|--0-------0-------0-0-0-0-0-------|


  S S S S S S S S S S S S S S S S    S S S S S S S S S S S S Q     
----------------------------------|-------------------------------|
----------------------------------|--------------------------6----|
----------------------------------|--------------------------9----|
----------------------------------|-------------------------------|
--0-0-0-0-0-----------0-------0-0-|--0-------0-------0-0-0--------|
--0-0-0-0-0-----------0-------0-0-|--0-------0-------0-0-0--------|


  S S S S S S S S S S S S S S S S    S S S S S S S S S S S S S S S S  
----------------------------------|----------------------------------|
----------------------------------|----------------------------------|
----------------------------------|----------------------------------|
----------------------------------|----------------------------------|
--0-0-0-0-0-----------0-------0-0-|--0-------0-------0-0-0-0-0-------|
--0-0-0-0-0-----------0-------0-0-|--0-------0-------0-0-0-0-0-------|


  S S S S S S S S S S S S S S S S    S S S S S S S S S S S S Q     
----------------------------------|-------------------------------|
----------------------------------|--------------------------6----|
----------------------------------|--------------------------9----|
----------------------------------|-------------------------------|
--0-0-0-0-0-----------0-------0-0-|--0-------0-------0-0-0--------|
--0-0-0-0-0-----------0-------0-0-|--0-------0-------0-0-0--------|


  E  E  E  E  E  E   E   E     E  E  E  E  E  E  E     E  E  E  E  E  E  E   
----------------------------|-----------------------|-----------------------|
----------------------------|-----------------------|-----------------------|
----------------------------|-----------------------|-----------------------|
--------7-----------10s--8--|--------7-----5-----8--|--------3-----2--------|
--------------8-------------|-----------------------|--------------------3--|
--8--8----------------------|--5--5-----------------|--0--0-----------------|


  E  E  E  E  E  E  E     E  E  E  E  E  E   E   E     E  E  E  E  E  E  E   
-----------------------|----------------------------|-----------------------|
-----------------------|----------------------------|-----------------------|
-----------------------|----------------------------|-----------------------|
--------5-----3-----7--|--------7-----------10s--8--|--------7-----5-----8--|
-----------------------|--------------8-------------|-----------------------|
--3--3-----------------|--8--8----------------------|--5--5-----------------|


  E  E  E  E  E  E  E     E  E  E  E  E  E  E     E  E  E  E  E  E   E   E   
-----------------------|-----------------------|----------------------------|
-----------------------|-----------------------|----------------------------|
-----------------------|-----------------------|----------------------------|
--------3-----2--------|--------5-----3-----7--|--------7-----------10s--8--|
--------------------3--|-----------------------|--------------8-------------|
--0--0-----------------|--3--3-----------------|--8--8----------------------|


  E  E  E  E  E  E  E     E  E  E  E  E  E  E     E  E  E  E  E  E  E   
-----------------------|-----------------------|-----------------------|
-----------------------|-----------------------|-----------------------|
-----------------------|-----------------------|-----------------------|
--------7-----5-----8--|--------3-----2--------|--------5-----3-----7--|
-----------------------|--------------------3--|-----------------------|
--5--5-----------------|--0--0-----------------|--3--3-----------------|


  E  E  E  E  E  E   E   E     E  E  E  E  E  E  E     E  E  E  E  E  E  E   
----------------------------|-----------------------|-----------------------|
----------------------------|-----------------------|-----------------------|
----------------------------|-----------------------|-----------------------|
--------7-----------10s--8--|--------7-----5-----8--|--------3-----2--------|
--------------8-------------|-----------------------|--------------------3--|
--8--8----------------------|--5--5-----------------|--0--0-----------------|


  E  E  E  E  E  E  E     S S S S S S S S S    S S S S S S S S S S S S S S S  
-----------------------|--------------------|--------------------------------|
-----------------------|--------------------|--------------------------------|
-----------------------|--------------------|--------------------------------|
--------5-----3-----7--|--------------------|--------------------------------|
-----------------------|--8-8-8-8-8-8-8-8-8-|------0---5-5-5---5-5-5---5-5-5-|
--3--3-----------------|--8-8-8-8-8-8-8-8-8-|------0---5-5-5---5-5-5---5-5-5-|


  S S S S S S S S S    S S S S S S S S S S S S S S S    S S S S S S S S S  
--------------------|--------------------------------|--------------------|
--------------------|--------------------------------|--------------------|
--------------------|--------------------------------|--------------------|
--------------------|--------------------------------|--------------------|
--0-0-0-0-0-0-0-0-0-|------0---3-3-3---3-3-3---3-3-3-|--8-8-8-8-8-8-8-8-8-|
--0-0-0-0-0-0-0-0-0-|------0---3-3-3---3-3-3---3-3-3-|--8-8-8-8-8-8-8-8-8-|


  S S S S S S S S S S S S S S S    S S S S S S S S S    S S S S S S S S S S S S S S S  
--------------------------------|--------------------|--------------------------------|
--------------------------------|--------------------|--------------------------------|
--------------------------------|--------------------|--------------------------------|
--------------------------------|--------------------|--------------------------------|
------0---5-5-5---5-5-5---5-5-5-|--0-0-0-0-0-0-0-0-0-|------0---3-3-3---3-3-3---3-3-3-|
------0---5-5-5---5-5-5---5-5-5-|--0-0-0-0-0-0-0-0-0-|------0---3-3-3---3-3-3---3-3-3-|


  S S S S S S S S S    S S S S S S S S S S S S S S S    S S S S S S S S S  
--------------------|--------------------------------|--------------------|
--------------------|--------------------------------|--------------------|
--------------------|--------------------------------|--------------------|
--------------------|--------------------------------|--------------------|
--8-8-8-8-8-8-8-8-8-|------0---5-5-5---5-5-5---5-5-5-|--0-0-0-0-0-0-0-0-0-|
--8-8-8-8-8-8-8-8-8-|------0---5-5-5---5-5-5---5-5-5-|--0-0-0-0-0-0-0-0-0-|


  S S S S S S S S S S S S S S S    S S S S S S S S S    S S S S S S S S S S S S S S S  
--------------------------------|--------------------|--------------------------------|
--------------------------------|--------------------|--------------------------------|
--------------------------------|--------------------|--------------------------------|
--------------------------------|--------------------|--------------------------------|
------0---3-3-3---3-3-3---3-3-3-|--8-8-8-8-8-8-8-8-8-|------0---5-5-5---5-5-5---5-5-5-|
------0---3-3-3---3-3-3---3-3-3-|--8-8-8-8-8-8-8-8-8-|------0---5-5-5---5-5-5---5-5-5-|


  S S S S S S S S S    S S S S S S S S S S S S S S S                                          
--------------------|--------------------------------|----|----|----|----|----|----|----|----|
--------------------|--------------------------------|----|----|----|----|----|----|----|----|
--------------------|--------------------------------|----|----|----|----|----|----|----|----|
--------------------|--------------------------------|----|----|----|----|----|----|----|----|
--0-0-0-0-0-0-0-0-0-|------0---3-3-3---3-3-3---3-3-3-|----|----|----|----|----|----|----|----|
--0-0-0-0-0-0-0-0-0-|------0---3-3-3---3-3-3---3-3-3-|----|----|----|----|----|----|----|----|


  S S S S S S S S S S S S S S    S S S S S S S S S S S S S S S    S S S S S S S S S S S S S S  
------------------------------|--------------------------------|------------------------------|
------------------------------|--------------------------------|------------------------------|
------------------------------|--------------------------------|------------------------------|
------------------------------|--------------------------------|------------------------------|
--0-0-0-----------------------|--0-0-0-------0-0-0-------0-0-0-|--0-0-0-----------------------|
--0-0-0-----------------------|--0-0-0-------0-0-0-------0-0-0-|--0-0-0-----------------------|


  S S S S S S S S S S S S S S S    S S S S    S S S S S S S S S S S S S S S    S S S S  
--------------------------------|----------|--------------------------------|----------|
--------------------------------|----------|--------------------------------|----------|
--------------------------------|----------|--------------------------------|----------|
--------------------------------|----------|--------------------------------|----------|
--0-0-0-------0-0-0-------0-0-0-|--0-0-0---|--0-0-0-------0-0-0-------0-0-0-|--0-0-0---|
--0-0-0-------0-0-0-------0-0-0-|--0-0-0---|--0-0-0-------0-0-0-------0-0-0-|--0-0-0---|


  S S S    S S S S S S S S S S S S S S    S S S S S S S S S S S S S S S  
--------|------------------------------|--------------------------------|
--------|------------------------------|--------------------------------|
--------|------------------------------|--------------------------------|
--------|------------------------------|--------------------------------|
--0-0-0-|--0-0-0-----------------------|--0-0-0-------0-0-0-------0-0-0-|
--0-0-0-|--0-0-0-----------------------|--0-0-0-------0-0-0-------0-0-0-|


  S S S S S S S S S S S S S S    S S S S S S S S S S S S S S S    S S S S  
------------------------------|--------------------------------|----------|
------------------------------|--------------------------------|----------|
------------------------------|--------------------------------|----------|
------------------------------|--------------------------------|----------|
--0-0-0-----------------------|--0-0-0-------0-0-0-------0-0-0-|--0-0-0---|
--0-0-0-----------------------|--0-0-0-------0-0-0-------0-0-0-|--0-0-0---|


  S S S S S S S S S S S S S S S    S S S S    S S S S S S S S S S S S S S S S              
--------------------------------|----------|----------------------------------|-----|-----|
--------------------------------|----------|----------------------------------|-----|-----|
--------------------------------|----------|----------------------------------|-----|-----|
--------------------------------|----------|----------------------------------|-----|-----|
--0-0-0-------0-0-0-------0-0-0-|--0-0-0---|--0-0-0-----------0-0-0-0-0-0-0-0-|-----|-----|
--0-0-0-------0-0-0-------0-0-0-|--0-0-0---|--0-0-0-----------0-0-0-0-0-0-0-0-|-----|-----|


  S S S S S S S S S S S S S S S S    S S S S S S S S S S S S S S S  
----------------------------------|--------------------------------|
----------------------------------|--------------------------------|
----------------------------------|--------------------------------|
----------------------------------|--------------------------------|
--0-----------0-0-0---0-0-0-------|------0-0-0---0-0-0---0---0---0-|
--0-----------0-0-0---0-0-0-------|------0-0-0---0-0-0---0---0---0-|


  S S S S S S S S S S S S S S S S    S S S S S S S S S S S S S S S  
----------------------------------|--------------------------------|
----------------------------------|--------------------------------|
----------------------------------|--------------------------------|
----------------------------------|--------------------------------|
--1-----------1-1-1---1-1-4-------|------4-4-4---4-4-4---4---4---4-|
--1-----------1-1-1---1-1-4-------|------4-4-4---4-4-4---4---4---4-|


  S S S S S S S S S S S S S S S S    S S S S S S S S S S S S S S S  
----------------------------------|--------------------------------|
----------------------------------|--------------------------------|
----------------------------------|--------------------------------|
----------------------------------|--------------------------------|
--0-----------0-0-0---0-0-0-------|------0-0-0---0-0-0---0---0---0-|
--0-----------0-0-0---0-0-0-------|------0-0-0---0-0-0---0---0---0-|


  S S S S S S S S S S S S S S S S    S S S S S S S S S S S S S S S  
----------------------------------|--------------------------------|
----------------------------------|--------------------------------|
----------------------------------|--------------------------------|
----------------------------------|--------------------------------|
--1-----------1-1-1---1-1-4-------|------4-4-4---4-4-4---4---4---4-|
--1-----------1-1-1---1-1-4-------|------4-4-4---4-4-4---4---4---4-|


  S S S S S S S S S S S S S S S S    S S S S S S S S S S S S S S S  
----------------------------------|--------------------------------|
----------------------------------|--------------------------------|
----------------------------------|--------------------------------|
----------------------------------|--------------------------------|
--0-----------0-0-0---0-0-0-------|------0-0-0---0-0-0---0---0---0-|
--0-----------0-0-0---0-0-0-------|------0-0-0---0-0-0---0---0---0-|


  S S S S S S S S S S S S S S S S    S S S S S S S S S S S S S S S  
----------------------------------|--------------------------------|
----------------------------------|--------------------------------|
----------------------------------|--------------------------------|
----------------------------------|--------------------------------|
--1-----------1-1-1---1-1-4-------|------4-4-4---4-4-4---4---4---4-|
--1-----------1-1-1---1-1-4-------|------4-4-4---4-4-4---4---4---4-|


  S S S S S S S S S S S S S S S S    S S S S S S S S S S S S S S S  
----------------------------------|--------------------------------|
----------------------------------|--------------------------------|
----------------------------------|--------------------------------|
----------------------------------|--------------------------------|
--0-----------0-0-0---0-0-0-------|------0-0-0---0-0-0---0---0---0-|
--0-----------0-0-0---0-0-0-------|------0-0-0---0-0-0---0---0---0-|


  S S S S S S S S S S S S S S S S    S S S S S S S S S S S S S S S  
----------------------------------|--------------------------------|
----------------------------------|--------------------------------|
----------------------------------|--------------------------------|
----------------------------------|--------------------------------|
--1-----------1-1-1---1-1-4-------|------4-4-4---4-4-4---4---4---4-|
--1-----------1-1-1---1-1-4-------|------4-4-4---4-4-4---4---4---4-|


  S S S S S S S S S S S S S S S S    S S S S S S S S S S S S S S S  
----------------------------------|--------------------------------|
----------------------------------|--------------------------------|
----------------------------------|--------------------------------|
----------------------------------|--------------------------------|
--0-----------0-0-0---0-0-0-------|------0-0-0---0-0-0---0---0---0-|
--0-----------0-0-0---0-0-0-------|------0-0-0---0-0-0---0---0---0-|


  S S S S S S S S S S S S S S S S    S S S S S S S S S S S S S S S  
----------------------------------|--------------------------------|
----------------------------------|--------------------------------|
----------------------------------|--------------------------------|
----------------------------------|--------------------------------|
--5-----------5-5-5---5-5-8-------|------8-8-8---8-8-8---8---8---8-|
--5-----------5-5-5---5-5-8-------|------8-8-8---8-8-8---8---8---8-|


  S S S S S S S S S S S S S S S S    S S S S S S S S S S S S S S S  
----------------------------------|--------------------------------|
----------------------------------|--------------------------------|
----------------------------------|--------------------------------|
----------------------------------|--------------------------------|
--0-----------0-0-0---0-0-0-------|------0-0-0---0-0-0---0---0---0-|
--0-----------0-0-0---0-0-0-------|------0-0-0---0-0-0---0---0---0-|


  S S S S S S S S S S S S S S S S    S S S S S S S S S S S S S S S  
----------------------------------|--------------------------------|
----------------------------------|--------------------------------|
----------------------------------|--------------------------------|
----------------------------------|--------------------------------|
--5-----------5-5-5---5-5-8-------|------8-8-8---8-8-8---8---8---8-|
--5-----------5-5-5---5-5-8-------|------8-8-8---8-8-8---8---8---8-|


  S S S S S S S S S S S S S S S S    S S S S S S S S S S S S S S S  
----------------------------------|--------------------------------|
----------------------------------|--------------------------------|
----------------------------------|--------------------------------|
----------------------------------|--------------------------------|
--0-----------0-0-0---0-0-0-------|------0-0-0---0-0-0---0---0---0-|
--0-----------0-0-0---0-0-0-------|------0-0-0---0-0-0---0---0---0-|


  S S S S S S S S S S S S S S S S    S S S S S S S S S S S S S S S  
----------------------------------|--------------------------------|
----------------------------------|--------------------------------|
----------------------------------|--------------------------------|
----------------------------------|--------------------------------|
--5-----------5-5-5---5-5-8-------|------8-8-8---8-8-8---8---8---8-|
--5-----------5-5-5---5-5-8-------|------8-8-8---8-8-8---8---8---8-|


  S S S S S S S S S S S S S S S S    S S S S S S S S S S S S S S S  
----------------------------------|--------------------------------|
----------------------------------|--------------------------------|
----------------------------------|--------------------------------|
----------------------------------|--------------------------------|
--0-----------0-0-0---0-0-0-------|------0-0-0---0-0-0---0---0---0-|
--0-----------0-0-0---0-0-0-------|------0-0-0---0-0-0---0---0---0-|


  S S S S S S S S S S S S S S S S    S S S S S S S S S S S S S S S    W                       
----------------------------------|--------------------------------|-------------------|-----|
----------------------------------|--------------------------------|-------------------|-----|
----------------------------------|--------------------------------|-------------------|-----|
----------------------------------|--------------------------------|-------------------|-----|
--5-----------5-5-5---5-5-8-------|------8-8-8---8-8-8---8---8---8-|--0----------------|-----|
--5-----------5-5-5---5-5-8-------|------8-8-8---8-8-8---8---8---8-|--0----------------|-----|


                          W                                     S S S S S S S S S S S S S  
-----|-----|-----|-----|-------------------|-----|-----|-----|----------------------------|
-----|-----|-----|-----|-------------------|-----|-----|-----|----------------------------|
-----|-----|-----|-----|-------------------|-----|-----|-----|----------------------------|
-----|-----|-----|-----|-------------------|-----|-----|-----|----------------------------|
-----|-----|-----|-----|--0----------------|-----|-----|-----|--0-0-0---0-0-0-------0-0-0-|
-----|-----|-----|-----|--0----------------|-----|-----|-----|--0-0-0---0-0-0-------0-0-0-|


  S S S S S S S S S S S S S S    S S S S S S S S S S S S S    S S S S S S S S S S S S S S  
------------------------------|----------------------------|------------------------------|
------------------------------|----------------------------|------------------------------|
------------------------------|----------------------------|------------------------------|
------------------------------|----------------------------|------------------------------|
------0-0-0-------0-0-----0-0-|--0-0-----0-0---------0-0-0-|------0-0-0-------0-0-----0-0-|
------0-0-0-------0-0-----0-0-|--0-0-----0-0---------0-0-0-|------0-0-0-------0-0-----0-0-|


  S S S S S S S S S S S S S    S S S S S S S S S S S S S S    S S S S S S S S S S S S S  
----------------------------|------------------------------|----------------------------|
----------------------------|------------------------------|----------------------------|
----------------------------|------------------------------|----------------------------|
----------------------------|------------------------------|----------------------------|
--0-0-----0-0---------0-0-0-|------0-0-0-------0-0-----0-0-|--0-0-----0-0---------0-0-0-|
--0-0-----0-0---------0-0-0-|------0-0-0-------0-0-----0-0-|--0-0-----0-0---------0-0-0-|


  S S S S S S S S S S S S S S    S S S S S S S S S S S S S S S S  
------------------------------|----------------------------------|
------------------------------|----------------------------------|
------------------------------|----------------------------------|
------------------------------|----------------------------------|
------0-0-0-------0-0-----0-0-|--0-0-0---0-0-0-------0-0-0-------|
------0-0-0-------0-0-----0-0-|--0-0-0---0-0-0-------0-0-0-------|


  S S S S S S S S S S S S S S    S S S S S S S S S S S S S S S S  
------------------------------|----------------------------------|
------------------------------|----------------------------------|
------------------------------|----------------------------------|
------------------------------|----------------------------------|
------0-0-0-------0-0-----0-0-|--0-0-----0-0---------0-0-0-------|
------0-0-0-------0-0-----0-0-|--0-0-----0-0---------0-0-0-------|


  S S S S S S S S S S S S S S    S S S S S S S S S S S S S    S S S S S S S S S S S S S S  
------------------------------|----------------------------|------------------------------|
------------------------------|----------------------------|------------------------------|
------------------------------|----------------------------|------------------------------|
------------------------------|----------------------------|------------------------------|
------0-0-0-------0-0-----0-0-|--0-0-0---0-0-0-------0-0-0-|------0-0-0-------0-0-----0-0-|
------0-0-0-------0-0-----0-0-|--0-0-0---0-0-0-------0-0-0-|------0-0-0-------0-0-----0-0-|


  S S S S S S S S S S S S S    S S S S S S S S S S S S S S     W                 
----------------------------|------------------------------|--13----------------|
----------------------------|------------------------------|--13----------------|
----------------------------|------------------------------|--10----------------|
----------------------------|------------------------------|--10----------------|
--0-0-----0-0---------0-0-0-|------0-0-0-------0-0-----0-0-|--------------------|
--0-0-----0-0---------0-0-0-|------0-0-0-------0-0-----0-0-|--------------------|


   W                   W                    W                    W                 
--12----------------|--8----------------|--10----------------|--13----------------|
--------------------|-------------------|--------------------|--13----------------|
---9----------------|--5----------------|---7----------------|--10----------------|
--10----------------|--7----------------|---7----------------|--10----------------|
--------------------|-------------------|--------------------|--------------------|
--------------------|-------------------|--------------------|--------------------|


   W                   W                    W                    W                 
--12----------------|--8----------------|--10----------------|--13----------------|
--------------------|-------------------|--------------------|--13----------------|
---9----------------|--5----------------|---7----------------|--10----------------|
--10----------------|--7----------------|---7----------------|--10----------------|
--------------------|-------------------|--------------------|--------------------|
--------------------|-------------------|--------------------|--------------------|


   W                   W                    W                    W                 
--12----------------|--8----------------|--10----------------|--13----------------|
--------------------|-------------------|--------------------|--13----------------|
---9----------------|--5----------------|---7----------------|--10----------------|
--10----------------|--7----------------|---7----------------|--10----------------|
--------------------|-------------------|--------------------|--------------------|
--------------------|-------------------|--------------------|--------------------|


   W                   W                                     
--12----------------|--8----------------|-------------------|
--------------------|-------------------|-------------------|
---9----------------|--5----------------|-------------------|
--10----------------|--7----------------|-------------------|
--------------------|-------------------|-------------------|
--------------------|-------------------|-------------------|


  S S S S S S S S S S S S S S S S    S S S S S S S S S S S S S S S    S S S S S S S S S  
----------------------------------|--------------------------------|--------------------|
----------------------------------|--------------------------------|--------------------|
----------------------------------|--------------------------------|--------------------|
----------------------------------|--------------------------------|--------------------|
--8-8-8-8-8-8-8-8-8---------------|------0---5-5-5---5-5-5---5-5-5-|--0-0-0-0-0-0-0-0-0-|
--8-8-8-8-8-8-8-8-8---------------|------0---5-5-5---5-5-5---5-5-5-|--0-0-0-0-0-0-0-0-0-|


  S S S S S S S S S S S S S S S    S S S S S S S S S S S S S S S S  
--------------------------------|----------------------------------|
--------------------------------|----------------------------------|
--------------------------------|----------------------------------|
--------------------------------|----------------------------------|
------0---3-3-3---3-3-3---3-3-3-|--8-8-8-8-8-8-8-8-8---------------|
------0---3-3-3---3-3-3---3-3-3-|--8-8-8-8-8-8-8-8-8---------------|


  S S S S S S S S S S S S S S S    S S S S S S S S S    S S S S S S S S S S S S S S S  
--------------------------------|--------------------|--------------------------------|
--------------------------------|--------------------|--------------------------------|
--------------------------------|--------------------|--------------------------------|
--------------------------------|--------------------|--------------------------------|
------0---5-5-5---5-5-5---5-5-5-|--0-0-0-0-0-0-0-0-0-|------0---3-3-3---3-3-3---3-3-3-|
------0---5-5-5---5-5-5---5-5-5-|--0-0-0-0-0-0-0-0-0-|------0---3-3-3---3-3-3---3-3-3-|


  S S S S S S S S E   E  E  E     S S S S S S S S E    E  E  E   
-------------------------------|--------------------------------|
-------------------------------|--------------------------------|
------------------9S--7--------|------------------7S--10--------|
-------------------------------|--------------------------------|
--8-8-8---8-8-8---7S--5--------|--5-5-5---5-5-5---5S---8--------|
--8-8-8---8-8-8----------------|--5-5-5---5-5-5-----------------|


  S S S S S S S S E   E  E  E     S S S S S S S S E   E  E  E   
-------------------------------|-------------------------------|
-------------------------------|-------------------------------|
------------------5S--7--------|------------------9S--7--------|
-------------------------------|-------------------------------|
--0-0-0---0-0-0---3S--5--------|--3-3-3---3-3-3---7S--5--------|
--0-0-0---0-0-0----------------|--3-3-3---3-3-3----------------|


  S S S S S S S S E   E  E  E     S S S S S S S S E    E  E  E   
-------------------------------|--------------------------------|
-------------------------------|--------------------------------|
------------------9S--7--------|------------------7S--10--------|
-------------------------------|--------------------------------|
--8-8-8---8-8-8---7S--5--------|--5-5-5---5-5-5---5S---8--------|
--8-8-8---8-8-8----------------|--5-5-5---5-5-5-----------------|


  S S S S S S S S E   E  E  E     S S S S S S S S E   E  E  E   
-------------------------------|-------------------------------|
-------------------------------|-------------------------------|
------------------5S--7--------|------------------7S--6--------|
-------------------------------|-------------------------------|
--0-0-0---0-0-0---3S--5--------|--3-3-3---3-3-3---5S--4--------|
--0-0-0---0-0-0----------------|--3-3-3---3-3-3----------------|


  S S S S S S S S S S S S S S S S    S S S S S S S S S S S S S S S S  
----------------------------------|----------------------------------|
----------------------------------|----------------------------------|
----------------------------------|----------------------------------|
----------------------------------|----------------------------------|
--0-0-0---0-0-0-------0-------0---|--0-0-0-------0-------0-0-0-------|
--1-1-1---1-1-1-------1-------1---|--1-1-1-------1-------1-1-1-------|


  S S S S S S S S S S S S S S S S    S S S S S S S S S S S S S S S S  
----------------------------------|----------------------------------|
----------------------------------|----------------------------------|
----------------------------------|----------------------------------|
----------------------------------|----------------------------------|
--0-0-0---0-0-0-------0-------0---|--0-0-0-------0-------0-0-0-------|
--1-1-1---1-1-1-------1-------1---|--1-1-1-------1-------1-1-1-------|


  S S S S S S S S S S S S S S S S    S S S S S S S S S S S S S S S S  
----------------------------------|----------------------------------|
----------------------------------|----------------------------------|
----------------------------------|----------------------------------|
----------------------------------|----------------------------------|
--0-0-0---0-0-0-------0-------0---|--0-0-0-------0-------0-0-0-------|
--1-1-1---1-1-1-------1-------1---|--1-1-1-------1-------1-1-1-------|


  S S S S S S S S S S S S S S S S    S S S S S S S S S S S S S S S S    W                 
----------------------------------|----------------------------------|-------------------|
----------------------------------|----------------------------------|-------------------|
----------------------------------|----------------------------------|-------------------|
----------------------------------|----------------------------------|-------------------|
--0-0-0---0-0-0-------0-------0---|--0-0-0-------0-------0-0-0-------|--0----------------|
--1-1-1---1-1-1-------1-------1---|--1-1-1-------1-------1-1-1-------|--0----------------|


         E   E   E   E   E   E   E    E      E   E   E   E   E   E   E    E   
-----|-----------------------------------|-----------------------------------|
-----|-----------------------------------|-----------------------------------|
-----|-----------------------------------|--------------------------14s--12--|
-----|--12--15--14------12--14--15s--17--|------17--14------14--15-----------|
-----|--------------15-------------------|--15----------15-------------------|
-----|-----------------------------------|-----------------------------------|


   E   E   E   E   E   E   E    E      E   E   E   E   E   E   E    E   
-----------------------------------|-----------------------------------|
-----------------------------------|-----------------------------------|
-----------------------------------|--------------------------14s--12--|
--12--15--14------12--14--15s--17--|------17--14------14--15-----------|
--------------15-------------------|--15----------15-------------------|
-----------------------------------|-----------------------------------|


   E   E   E   E   E   E   E    E      E   E   E   E   E   E   E    E   
-----------------------------------|-----------------------------------|
-----------------------------------|-----------------------------------|
-----------------------------------|--------------------------14s--12--|
--12--15--14------12--14--15s--17--|------17--14------14--15-----------|
--------------15-------------------|--15----------15-------------------|
-----------------------------------|-----------------------------------|


   E   E   E   E   E   E   E    E      E   E   E   E   E   E   E    E   
-----------------------------------|-----------------------------------|
-----------------------------------|-----------------------------------|
-----------------------------------|--------------------------14s--12--|
--12--15--14------12--14--15s--17--|------17--14------14--15-----------|
--------------15-------------------|--15----------15-------------------|
-----------------------------------|-----------------------------------|


  S S S S S S S S S S S S S S S S    S S S S S S S S S S S S S S S S  
----------------------------------|----------------------------------|
----------------------------------|----------------------------------|
----------------------------------|----------------------------------|
----------------------------------|----------------------------------|
--0-0-0-0-0-----------0-------0-0-|--0-------0-------0-0-0-0-0-------|
--0-0-0-0-0-----------0-------0-0-|--0-------0-------0-0-0-0-0-------|


  S S S S S S S S S S S S S S S S    S S S S S S S S S S S S S S S S  
----------------------------------|----------------------------------|
----------------------------------|----------------------------------|
----------------------------------|----------------------------------|
----------------------------------|----------------------------------|
--0-0-0-0-0-----------0-------0-0-|--0-------0-------0-0-0-0-0-------|
--0-0-0-0-0-----------0-------0-0-|--0-------0-------0-0-0-0-0-------|


  S S S S S S S S S S S S S S S S    S S S S S S S S S S S S S S S S  
----------------------------------|----------------------------------|
----------------------------------|----------------------------------|
----------------------------------|----------------------------------|
----------------------------------|----------------------------------|
--0-0-0-0-0-----------0-------0-0-|--0-------0-------0-0-0-0-0-------|
--0-0-0-0-0-----------0-------0-0-|--0-------0-------0-0-0-0-0-------|


  S S S S S S S S S S S S S S S S    S S S S S S S S S S S S S S S S  
----------------------------------|----------------------------------|
----------------------------------|----------------------------------|
----------------------------------|----------------------------------|
----------------------------------|----------------------------------|
--0-0-0-0-0-----------0-------0-0-|--0-------0-------0-0-0-0-0-------|
--0-0-0-0-0-----------0-------0-0-|--0-------0-------0-0-0-0-0-------|


  S S S S S S S S S S S S S S S S    S S S S S S S S S S S S S S S S  
----------------------------------|----------------------------------|
----------------------------------|----------------------------------|
----------------------------------|----------------------------------|
----------------------------------|----------------------------------|
--0-0-0-0-0-----------0-------0-0-|--0-------0-------0-0-0-0-0-------|
--0-0-0-0-0-----------0-------0-0-|--0-------0-------0-0-0-0-0-------|


  S S S S S S S S S S S S S S S S    S S S S S S S S S S S S S S S S  
----------------------------------|----------------------------------|
----------------------------------|----------------------------------|
----------------------------------|----------------------------------|
----------------------------------|----------------------------------|
--0-0-0-0-0-----------0-------0-0-|--0-------0-------0-0-0-0-0-------|
--0-0-0-0-0-----------0-------0-0-|--0-------0-------0-0-0-0-0-------|


  S S S S S S S S S S S S S S S S    S S S S S S S S S S S S S S S S  
----------------------------------|----------------------------------|
----------------------------------|----------------------------------|
----------------------------------|----------------------------------|
----------------------------------|----------------------------------|
--0-0-0-0-0-----------0-------0-0-|--0-------0-------0-0-0-0-0-------|
--0-0-0-0-0-----------0-------0-0-|--0-------0-------0-0-0-0-0-------|


  S S S S S S S S S S S S S S S S    S S S S S S S S S S S S S S S S  
----------------------------------|----------------------------------|
----------------------------------|----------------------------------|
----------------------------------|----------------------------------|
----------------------------------|----------------------------------|
--0-0-0-0-0-----------0-------0-0-|--0-------0-------0-0-0-0-0-------|
--0-0-0-0-0-----------0-------0-0-|--0-------0-------0-0-0-0-0-------|


  S S S S S S S S S S S S S S S S    S S S S S S S S S S S S S S S S  
----------------------------------|----------------------------------|
----------------------------------|----------------------------------|
----------------------------------|----------------------------------|
----------------------------------|----------------------------------|
--0-0-0-0-0-----------0-------0-0-|--0-------0-------0-0-0-0-0-------|
--0-0-0-0-0-----------0-------0-0-|--0-------0-------0-0-0-0-0-------|


  S S S S S S S S S S S S S S S S    S S S S S S S S S S S S S S S S  
----------------------------------|----------------------------------|
----------------------------------|----------------------------------|
----------------------------------|----------------------------------|
----------------------------------|----------------------------------|
--0-0-0-0-0-----------0-------0-0-|--0-------0-------0-0-0-0-0-------|
--0-0-0-0-0-----------0-------0-0-|--0-------0-------0-0-0-0-0-------|


  S S S S S S S S S S S S S S S S    S S S S S S S S S S S S S S S S  
----------------------------------|----------------------------------|
----------------------------------|----------------------------------|
----------------------------------|----------------------------------|
----------------------------------|----------------------------------|
--0-0-0-0-0-----------0-------0-0-|--0-------0-------0-0-0-0-0-------|
--0-0-0-0-0-----------0-------0-0-|--0-------0-------0-0-0-0-0-------|


  S S S S S S S S S S S S S S S S    S S S S S S S S S S S S S S S S  
----------------------------------|----------------------------------|
----------------------------------|----------------------------------|
----------------------------------|----------------------------------|
----------------------------------|----------------------------------|
--0-0-0-0-0-----------0-------0-0-|--0-------0-------0-0-0-0-0-------|
--0-0-0-0-0-----------0-------0-0-|--0-------0-------0-0-0-0-0-------|


  S S S S S S S S S S S S S S S S    S S S S S S S S S S S S S S S S  
----------------------------------|----------------------------------|
----------------------------------|----------------------------------|
----------------------------------|----------------------------------|
----------------------------------|----------------------------------|
--0-0-0-0-0-----------0-------0-0-|--0-------0-------0-0-0-0-0-------|
--0-0-0-0-0-----------0-------0-0-|--0-------0-------0-0-0-0-0-------|


  S S S S S S S S S S S S S S S S    S S S S S S S S S S S S S S S S  
----------------------------------|----------------------------------|
----------------------------------|----------------------------------|
----------------------------------|----------------------------------|
----------------------------------|----------------------------------|
--0-0-0-0-0-----------0-------0-0-|--0-------0-------0-0-0-0-0-------|
--0-0-0-0-0-----------0-------0-0-|--0-------0-------0-0-0-0-0-------|


  S S S S S S S S S S S S S S S S    S S S S S S S S S S S S S S S S  
----------------------------------|----------------------------------|
----------------------------------|----------------------------------|
----------------------------------|----------------------------------|
----------------------------------|----------------------------------|
------------------------------0-0-|--0-------0-------0-0-0-0-0-------|
------------------------------0-0-|--0-------0-------0-0-0-0-0-------|


  S S S S S S S S S S S S S S S S    S S S S S S S S S S S S S S S S  
----------------------------------|----------------------------------|
----------------------------------|----------------------------------|
----------------------------------|----------------------------------|
----------------------------------|----------------------------------|
--0-0-0-0-0-----------0-------0-0-|--0-------0-------0-0-0-0-0-------|
--0-0-0-0-0-----------0-------0-0-|--0-------0-------0-0-0-0-0-------|


  S S S S S S S S S S S S S S S S    S S S S S S S S S S S S S S S S  
----------------------------------|----------------------------------|
----------------------------------|----------------------------------|
----------------------------------|----------------------------------|
----------------------------------|----------------------------------|
--0-0-0-0-0-----------0-------0-0-|--0-------0-------0-0-0-0-0-------|
--0-0-0-0-0-----------0-------0-0-|--0-------0-------0-0-0-0-0-------|


  S S S S S S S S S S S S S S S S    S S S S S S S S S S S S S S S S  
----------------------------------|----------------------------------|
----------------------------------|----------------------------------|
----------------------------------|----------------------------------|
----------------------------------|----------------------------------|
--0-0-0-0-0-----------0-------0-0-|--0-------0-------0-0-0-0-0-------|
--0-0-0-0-0-----------0-------0-0-|--0-------0-------0-0-0-0-0-------|


  S S S S S S S S S S S S S S S S    S S S S S S S S S S S S S S S S    E    
----------------------------------|----------------------------------|-----||
----------------------------------|----------------------------------|-----||
----------------------------------|----------------------------------|-----||
----------------------------------|----------------------------------|-----||
--0-0-0-0-0-----------0-------0-0-|--0-------0-------0-0-0-0-0-------|--0--||
--0-0-0-0-0-----------0-------0-0-|--0-------0-------0-0-0-0-0-------|--0--||





Guitar 2



      S  S  S  S  S S S S S S  S S S S  S  S     S S S S  S S S S  S  S  S  S  S S S S  
D||--17-13--------------------13-------17-13-|-----------17-------17-13----------------|
A||--------15--------------------------------|--15----------------------15-------------|
F||-----------14-----------------------------|-----------------------------14----------|
C||--------------15--------------------------|--------------------------------15-------|
G||------------------------------------------|-----------------------------------------|
C||------------------------------------------|-----------------------------------------|


   S  S  S  S  S    S S S S S S S S S S S S S S S S  
--17-13----------|----------------------------------|
--------15-------|----------------------------------|
-----------14----|----------------------------------|
--------------15-|----------------------------------|
-----------------|----------0-------0-0-0-0-0-------|
-----------------|----------0-------0-0-0-0-0-------|


   S  S  S  S  S S S S S S  S S S S  S  S     S S S S  S S S S  S  S  S  S  S S S S  
--17-13--------------------13-------17-13-|-----------17-------17-13----------------|
--------15--------------------------------|--15----------------------15-------------|
-----------14-----------------------------|-----------------------------14----------|
--------------15--------------------------|--------------------------------15-------|
------------------------------------------|-----------------------------------------|
------------------------------------------|-----------------------------------------|


   S  S  S  S  S    S S S S S S S S S S S S S S S S  
--17-13----------|----------------------------------|
--------15-------|----------------------------------|
-----------14----|----------------------------------|
--------------15-|----------------------------------|
-----------------|----------0-------0-0-0-0-0-------|
-----------------|----------0-------0-0-0-0-0-------|


   S  S  S  S  S S S S S S  S S S S  S  S     S S S S  S S S S  S  S  S  S  S S S S  
--17-13--------------------13-------17-13-|-----------17-------17-13----------------|
--------15--------------------------------|--15----------------------15-------------|
-----------14-----------------------------|-----------------------------14----------|
--------------15--------------------------|--------------------------------15-------|
------------------------------------------|-----------------------------------------|
------------------------------------------|-----------------------------------------|


   S  S  S  S  S    S S S S S S S S S S S S S S S S  
--17-13----------|----------------------------------|
--------15-------|----------------------------------|
-----------14----|----------------------------------|
--------------15-|----------------------------------|
-----------------|----------0-------0-0-0-0-0-------|
-----------------|----------0-------0-0-0-0-0-------|


   S  S  S  S  S S S S S S  S S S S  S  S     S S S S  S S S S  S  S  S  S  S S S S  
--17-13--------------------13-------17-13-|-----------17-------17-13----------------|
--------15--------------------------------|--15----------------------15-------------|
-----------14-----------------------------|-----------------------------14----------|
--------------15--------------------------|--------------------------------15-------|
------------------------------------------|-----------------------------------------|
------------------------------------------|-----------------------------------------|


   S  S  S  S  S    S S S S S S S S S S S S S S S S    E  E  E  E  E  E  E  E   
--17-13----------|----------------------------------|--------------------------|
--------15-------|----------------------------------|--------------------------|
-----------14----|----------------------------------|--------------------------|
--------------15-|----------------------------------|--------------------------|
-----------------|----------0-------0-0-0-0-0-------|--0-----0--0-----0--0--0--|
-----------------|----------0-------0-0-0-0-0-------|--0-----0--0-----0--0--0--|


  E  E  E  E  E  E  E  E     E  E  E  E  E  E  E  E      Q     Q     Q     Q     
--------------------------|--------------------------|--------------------------|
--------------------------|--------------------------|--------------------------|
--------------------------|--------------------------|--10----10----10----10----|
--------------------------|--------------------------|--------------------------|
--5-----5--5-----5--5--5--|--8-----8--8-----8--8--8--|---8-----8-----8-----8----|
--5-----5--5-----5--5--5--|--8-----8--8-----8--8--8--|--------------------------|


  E  E  E  E  E  E  E  E     E  E  E  E  E  E  E  E     E  E  E  E  E  E  E  E   
--------------------------|--------------------------|--------------------------|
--------------------------|--------------------------|--------------------------|
--------------------------|--------------------------|--------------------------|
--------------------------|--------------------------|--------------------------|
--0-----0--0-----0--0--0--|--5-----5--5-----5--5--5--|--8-----8--8-----8--8--8--|
--0-----0--0-----0--0--0--|--5-----5--5-----5--5--5--|--8-----8--8-----8--8--8--|


   Q     Q     Q     Q       E  E  E  E  E  E  E  E     E  E  E  E  E  E  E  E   
--------------------------|--------------------------|--------------------------|
--------------------------|--------------------------|--------------------------|
--10----10----10----10----|--------------------------|--------------------------|
--------------------------|--------------------------|--------------------------|
---8-----8-----8-----8----|--0-----0--0-----0--0--0--|--5-----5--5-----5--5--5--|
--------------------------|--0-----0--0-----0--0--0--|--5-----5--5-----5--5--5--|


  E  E  E  E  E  E  E  E     Q    Q    Q    Q       E  E  E  E  E  E  E  E   
--------------------------|----------------------|--------------------------|
--------------------------|--6----6----6----6----|--------------------------|
--------------------------|--9----9----9----9----|--------------------------|
--------------------------|----------------------|--------------------------|
--8-----8--8-----8--8--8--|----------------------|--0-----0--0-----0--0--0--|
--8-----8--8-----8--8--8--|----------------------|--0-----0--0-----0--0--0--|


  E  E  E  E  E  E  E  E     E  E  E  E  E  E  E  E     Q    Q    Q    Q     
--------------------------|--------------------------|----------------------|
--------------------------|--------------------------|----------------------|
--------------------------|--------------------------|----------------------|
--------------------------|--------------------------|----------------------|
--5-----5--5-----5--5--5--|--8-----8--8-----8--8--8--|--0----0----0----0----|
--5-----5--5-----5--5--5--|--8-----8--8-----8--8--8--|--1----1----1----1----|


  S S S S S S S S S S S S S S S S    S S S S S S S S S S S S S S S S  
----------------------------------|----------------------------------|
----------------------------------|----------------------------------|
----------------------------------|----------------------------------|
----------------------------------|----------------------------------|
--0-0-0-0-0-----------0-------0-0-|--0-------0-------0-0-0-0-0-------|
--0-0-0-0-0-----------0-------0-0-|--0-------0-------0-0-0-0-0-------|


  S S S S S S S S S S S S S S S S    S S S S S S S S S S S S Q     
----------------------------------|-------------------------------|
----------------------------------|--------------------------6----|
----------------------------------|--------------------------9----|
----------------------------------|-------------------------------|
--0-0-0-0-0-----------0-------0-0-|--0-------0-------0-0-0--------|
--0-0-0-0-0-----------0-------0-0-|--0-------0-------0-0-0--------|


  S S S S S S S S S S S S S S S S    S S S S S S S S S S S S S S S S  
----------------------------------|----------------------------------|
----------------------------------|----------------------------------|
----------------------------------|----------------------------------|
----------------------------------|----------------------------------|
--0-0-0-0-0-----------0-------0-0-|--0-------0-------0-0-0-0-0-------|
--0-0-0-0-0-----------0-------0-0-|--0-------0-------0-0-0-0-0-------|


  S S S S S S S S S S S S S S S S    S S S S S S S S S S S S  
----------------------------------|--------------------------|
----------------------------------|--------------------------|
----------------------------------|--------------------------|
----------------------------------|--------------------------|
--0-0-0-0-0-----------0-------0-0-|--0-------0-------0-0-0---|
--0-0-0-0-0-----------0-------0-0-|--0-------0-------0-0-0---|


  S S S S S S S S S S S S S S S S    S S S S S S S S S S S S S S S S  
----------------------------------|----------------------------------|
----------------------------------|----------------------------------|
----------------------------------|----------------------------------|
----------------------------------|----------------------------------|
--0-0-0-0-0-----------0-------0-0-|--0-------0-------0-0-0-0-0-------|
--0-0-0-0-0-----------0-------0-0-|--0-------0-------0-0-0-0-0-------|


  S S S S S S S S S S S S S S S S    S S S S S S S S S S S S Q     
----------------------------------|-------------------------------|
----------------------------------|--------------------------6----|
----------------------------------|--------------------------9----|
----------------------------------|-------------------------------|
--0-0-0-0-0-----------0-------0-0-|--0-------0-------0-0-0--------|
--0-0-0-0-0-----------0-------0-0-|--0-------0-------0-0-0--------|


  S S S S S S S S S S S S S S S S    S S S S S S S S S S S S S S S S  
----------------------------------|----------------------------------|
----------------------------------|----------------------------------|
----------------------------------|----------------------------------|
----------------------------------|----------------------------------|
--0-0-0-0-0-----------0-------0-0-|--0-------0-------0-0-0-0-0-------|
--0-0-0-0-0-----------0-------0-0-|--0-------0-------0-0-0-0-0-------|


  S S S S S S S S S S S S S S S S    S S S S S S S S S S S S Q     
----------------------------------|-------------------------------|
----------------------------------|--------------------------6----|
----------------------------------|--------------------------9----|
----------------------------------|-------------------------------|
--0-0-0-0-0-----------0-------0-0-|--0-------0-------0-0-0--------|
--0-0-0-0-0-----------0-------0-0-|--0-------0-------0-0-0--------|


  E  E   E  E  E  E  E   E     E  E  E  E  E  E  E     E  E  E  E  E  E  E   
----------------------------|-----------------------|-----------------------|
----------------------------|-----------------------|-----------------------|
---------------------9s--7--|--------5-----------7--|-----------------------|
--------10-----7------------|--------------8--------|--------7-----5--------|
----------------------------|-----------------------|--------------------7--|
--8--8----------------------|--5--5-----------------|--0--0-----------------|


  E  E  E  E  E  E  E     E  E   E  E  E  E  E   E     E  E  E  E  E  E  E   
-----------------------|----------------------------|-----------------------|
-----------------------|----------------------------|-----------------------|
--------3-----2-----5--|---------------------9s--7--|--------5-----------7--|
-----------------------|--------10-----7------------|--------------8--------|
-----------------------|----------------------------|-----------------------|
--3--3-----------------|--8--8----------------------|--5--5-----------------|


  E  E  E  E  E  E  E     E  E  E  E  E  E  E     E  E   E  E  E  E  E   E   
-----------------------|-----------------------|----------------------------|
-----------------------|-----------------------|----------------------------|
-----------------------|--------3-----2-----5--|---------------------9s--7--|
--------7-----5--------|-----------------------|--------10-----7------------|
--------------------7--|-----------------------|----------------------------|
--0--0-----------------|--3--3-----------------|--8--8----------------------|


  E  E  E  E  E  E  E     E  E  E  E  E  E  E     E  E  E  E  E  E  E   
-----------------------|-----------------------|-----------------------|
-----------------------|-----------------------|-----------------------|
--------5-----------7--|-----------------------|--------3-----2-----5--|
--------------8--------|--------7-----5--------|-----------------------|
-----------------------|--------------------7--|-----------------------|
--5--5-----------------|--0--0-----------------|--3--3-----------------|


  E  E   E  E  E  E  E   E     E  E  E  E  E  E  E     E  E  E  E  E  E  E   
----------------------------|-----------------------|-----------------------|
----------------------------|-----------------------|-----------------------|
---------------------9s--7--|--------5-----------7--|-----------------------|
--------10-----7------------|--------------8--------|--------7-----5--------|
----------------------------|-----------------------|--------------------7--|
--8--8----------------------|--5--5-----------------|--0--0-----------------|


  E  E  E  E  E  E  E     S S S S S S S S S    S S S S S S S S S S S S S S S  
-----------------------|--------------------|--------------------------------|
-----------------------|--------------------|--------------------------------|
--------3-----2-----5--|--------------------|--------------------------------|
-----------------------|--------------------|--------------------------------|
-----------------------|--8-8-8-8-8-8-8-8-8-|------0---5-5-5---5-5-5---5-5-5-|
--3--3-----------------|--8-8-8-8-8-8-8-8-8-|------0---5-5-5---5-5-5---5-5-5-|


  S S S S S S S S S    S S S S S S S S S S S S S S S    S S S S S S S S S  
--------------------|--------------------------------|--------------------|
--------------------|--------------------------------|--------------------|
--------------------|--------------------------------|--------------------|
--------------------|--------------------------------|--------------------|
--0-0-0-0-0-0-0-0-0-|------0---3-3-3---3-3-3---3-3-3-|--8-8-8-8-8-8-8-8-8-|
--0-0-0-0-0-0-0-0-0-|------0---3-3-3---3-3-3---3-3-3-|--8-8-8-8-8-8-8-8-8-|


  S S S S S S S S S S S S S S S    S S S S S S S S S    S S S S S S S S S S S S S S S  
--------------------------------|--------------------|--------------------------------|
--------------------------------|--------------------|--------------------------------|
--------------------------------|--------------------|--------------------------------|
--------------------------------|--------------------|--------------------------------|
------0---5-5-5---5-5-5---5-5-5-|--0-0-0-0-0-0-0-0-0-|------0---3-3-3---3-3-3---3-3-3-|
------0---5-5-5---5-5-5---5-5-5-|--0-0-0-0-0-0-0-0-0-|------0---3-3-3---3-3-3---3-3-3-|


  E   E  E  E   E   E  E  E     E   E  E  E   E   E   E  E     E   E  E  E   E   E  E  E   
-----------------------------|------------------------------|-----------------------------|
-----------------------------|------------------------------|-----------------------------|
-----------------------------|------------------------------|-----------------------------|
---------7-------------7-----|---------7-------------10-----|---------7-------------7-----|
--7h--8-----8p--7h--8-----8--|--7h--8-----8p--7h--8------8--|--7h--8-----8p--7h--8-----8--|
-----------------------------|------------------------------|-----------------------------|


  E   E  E  E   E   E   E  E     E   E  E  E   E   E  E  E     E   E  E  E   E   E   E  E   
------------------------------|-----------------------------|------------------------------|
------------------------------|-----------------------------|------------------------------|
------------------------------|-----------------------------|------------------------------|
---------7-------------10-----|---------7-------------7-----|---------7-------------10-----|
--7h--8-----8p--7h--8------8--|--7h--8-----8p--7h--8-----8--|--7h--8-----8p--7h--8------8--|
------------------------------|-----------------------------|------------------------------|


  E   E  E  E   E   E  E  E     E   E  E   E  E    E   E    E   
-----------------------------|---------------------------------|
-----------------------------|---------------------------------|
-----------------------------|---------------------------------|
---------7-------------7-----|---------7s--8--8s--10--10s--11--|
--7h--8-----8p--7h--8-----8--|--7h--8--------------------------|
-----------------------------|---------------------------------|


  S S S S S S S S S S S S S S S    S S S S S S S S S S S S S S S  
--------------------------------|--------------------------------|
--------------------------------|--------------------------------|
--------------------------------|--------------------------------|
--------------------------------|--------------------------------|
--0-0-0-------------------------|--0-0-0-------0-0-0-------0-0-0-|
--0-0-0---0---0---0---0---0---0-|--0-0-0---0---0-0-0---0---0-0-0-|


  S S S S S S S S S S S S S S S    S S S S S S S S S S S S S S S  
--------------------------------|--------------------------------|
--------------------------------|--------------------------------|
--------------------------------|--------------------------------|
--------------------------------|--------------------------------|
--0-0-0-------------------------|--0-0-0-------0-0-0-------0-0-0-|
--0-0-0---0---0---0---0---0---0-|--0-0-0---0---0-0-0---0---0-0-0-|


  S S S S S S S S S S S S S S S    S S S S S S S S S S S S S S S  
--------------------------------|--------------------------------|
--------------------------------|--------------------------------|
--------------------------------|--------------------------------|
--------------------------------|--------------------------------|
--0-0-0-------------------------|--0-0-0-------0-0-0-------0-0-0-|
--0-0-0---0---0---0---0---0---0-|--0-0-0---0---0-0-0---0---0-0-0-|


  S S S S S S S S S S S S S S S    E     S S S S S S S S S S S S S S S  
--------------------------------|-----|--------------------------------|
--------------------------------|-----|--------------------------------|
--------------------------------|-----|--------------------------------|
--------------------------------|-----|--------------------------------|
--0-0-0-------------------------|-----|--0-0-0-------------------------|
--0-0-0---0---0---0---0---0---0-|--0--|--0-0-0---0---0---0---0---0---0-|


  S S S S S S S S S S S S S S S    S S S S S S S S S S S S S S S  
--------------------------------|--------------------------------|
--------------------------------|--------------------------------|
--------------------------------|--------------------------------|
--------------------------------|--------------------------------|
--0-0-0-------0-0-0-------0-0-0-|--0-0-0-------------------------|
--0-0-0---0---0-0-0---0---0-0-0-|--0-0-0---0---0---0---0---0---0-|


  S S S S S S S S S S S S S S S    S S S S S S S S S S S S S S S  
--------------------------------|--------------------------------|
--------------------------------|--------------------------------|
--------------------------------|--------------------------------|
--------------------------------|--------------------------------|
--0-0-0-------0-0-0-------0-0-0-|--0-0-0-------------------------|
--0-0-0---0---0-0-0---0---0-0-0-|--0-0-0---0---0---0---0---0---0-|


  S S S S S S S S S S S S S S S    S S S S S S S S S S S S S S S    S S S  
--------------------------------|--------------------------------|--------|
--------------------------------|--------------------------------|--------|
--------------------------------|--------------------------------|--------|
--------------------------------|--------------------------------|--------|
--0-0-0-------0-0-0-------0-0-0-|--0-0-0-------------------------|--0-0-0-|
--0-0-0---0---0-0-0---0---0-0-0-|--0-0-0---0---0---0---0---0---0-|--0-0-0-|


  S S S S S S S S S S S S S S S    S S S S S S S S S S S S S S S  
--------------------------------|--------------------------------|
--------------------------------|--------------------------------|
--------------------------------|--------------------------------|
--------------------------------|--------------------------------|
--0-0-0-------------------------|--0-0-0-------0-0-0-------0-0-0-|
--0-0-0---0---0---0---0---0---0-|--0-0-0---0---0-0-0---0---0-0-0-|


  S S S S S S S S S S S S S S S    S S S S S S S S S S S S S S S  
--------------------------------|--------------------------------|
--------------------------------|--------------------------------|
--------------------------------|--------------------------------|
--------------------------------|--------------------------------|
--0-0-0-------------------------|--0-0-0-------0-0-0-------0-0-0-|
--0-0-0---0---0---0---0---0---0-|--0-0-0---0---0-0-0---0---0-0-0-|


  S S S S S S S S S S S S S S S    S S S S S S S S S S S S S S S  
--------------------------------|--------------------------------|
--------------------------------|--------------------------------|
--------------------------------|--------------------------------|
--------------------------------|--------------------------------|
--0-0-0-------------------------|--0-0-0-------0-0-0-------0-0-0-|
--0-0-0---0---0---0---0---0---0-|--0-0-0---0---0-0-0---0---0-0-0-|


  S S S S S S S S S S S S S S S    S S S S S S S S S S S S S S S S                  
--------------------------------|----------------------------------|-------|-------|
--------------------------------|----------------------------------|-------|-------|
--------------------------------|----------------------------------|-------|-------|
--------------------------------|----------------------------------|-------|-------|
--0-0-0-------------------------|--0-0-0-----------0-0-0-0-0-0-0-0-|-------|-------|
--0-0-0---0---0---0---0---0---0-|--0-0-0-----------0-0-0-0-0-0-0-0-|-------|-------|


  E   E  E   E   E   E  E   E     E   E  E   E   E   E  E   E   
-------------------------------|-------------------------------|
-------------------------------|-------------------------------|
-------------------------------|-------------------------------|
--7p--0--8p--0--10p--0--8p--0--|--7p--0--8p--0--10p--0--8p--0--|
-------------------------------|-------------------------------|
-------------------------------|-------------------------------|


  T      T       T      T         T      T       T      T       
  E   E  E   E   E   E  E   E     E   E  E   E   E   E  E   E   
-------------------------------|-------------------------------|
-------------------------------|-------------------------------|
-------------------------------|-------------------------------|
--7p--1--8p--1--10p--1--8p--1--|--7p--4--8p--4--10p--4--8p--4--|
-------------------------------|-------------------------------|
-------------------------------|-------------------------------|


  E   E  E   E   E   E  E   E     E   E  E   E   E   E  E   E   
-------------------------------|-------------------------------|
-------------------------------|-------------------------------|
-------------------------------|-------------------------------|
--7p--0--8p--0--10p--0--8p--0--|--7p--0--8p--0--10p--0--8p--0--|
-------------------------------|-------------------------------|
-------------------------------|-------------------------------|


  T      T       T      T         T      T       T      T       
  E   E  E   E   E   E  E   E     E   E  E   E   E   E  E   E   
-------------------------------|-------------------------------|
-------------------------------|-------------------------------|
-------------------------------|-------------------------------|
--7p--1--8p--1--10p--1--8p--1--|--7p--4--8p--4--10p--4--8p--4--|
-------------------------------|-------------------------------|
-------------------------------|-------------------------------|


  E   E  E   E   E   E  E   E     E   E  E   E   E   E  E   E   
-------------------------------|-------------------------------|
-------------------------------|-------------------------------|
-------------------------------|-------------------------------|
--7p--0--8p--0--10p--0--8p--0--|--7p--0--8p--0--10p--0--8p--0--|
-------------------------------|-------------------------------|
-------------------------------|-------------------------------|


  T      T       T      T         T      T       T      T       
  E   E  E   E   E   E  E   E     E   E  E   E   E   E  E   E   
-------------------------------|-------------------------------|
-------------------------------|-------------------------------|
-------------------------------|-------------------------------|
--7p--1--8p--1--10p--1--8p--1--|--7p--4--8p--4--10p--4--8p--4--|
-------------------------------|-------------------------------|
-------------------------------|-------------------------------|


  E   E  E   E   E   E  E   E     E   E  E   E   E   E  E   E   
-------------------------------|-------------------------------|
-------------------------------|-------------------------------|
-------------------------------|-------------------------------|
--7p--0--8p--0--10p--0--8p--0--|--7p--0--8p--0--10p--0--8p--0--|
-------------------------------|-------------------------------|
-------------------------------|-------------------------------|


  T      T       T      T         T      T       T      T       
  E   E  E   E   E   E  E   E     E   E  E   E   E   E  E  E    
-------------------------------|-------------------------------|
-------------------------------|-------------------------------|
-------------------------------|-------------------------------|
--7p--1--8p--1--10p--1--8p--1--|--7p--4--8p--4--10p--4--8--4s--|
-------------------------------|-------------------------------|
-------------------------------|-------------------------------|


   E   E   E   E   E   E   E   E      E   E   E   E   E   E   E   E   
----------------------------------|----------------------------------|
----------------------------------|----------------------------------|
----------------------------------|----------------------------------|
--10p--0--12p--0--13p--0--12p--0--|--10p--0--12p--0--13p--0--12p--0--|
----------------------------------|----------------------------------|
----------------------------------|----------------------------------|


   T       T       T       T          T       T       T       T       
   E   E   E   E   E   E   E   E      E   E   E   E   E   E   E   E   
----------------------------------|----------------------------------|
----------------------------------|----------------------------------|
----------------------------------|----------------------------------|
--10p--5--12p--5--13p--5--12p--5--|--10p--8--12p--8--13p--8--12p--8--|
----------------------------------|----------------------------------|
----------------------------------|----------------------------------|


   E   E   E   E   E   E   E   E      E   E   E   E   E   E   E   E   
----------------------------------|----------------------------------|
----------------------------------|----------------------------------|
----------------------------------|----------------------------------|
--10p--0--12p--0--13p--0--12p--0--|--10p--0--12p--0--13p--0--12p--0--|
----------------------------------|----------------------------------|
----------------------------------|----------------------------------|


   T       T       T       T          T       T       T       T       
   E   E   E   E   E   E   E   E      E   E   E   E   E   E   E   E   
----------------------------------|----------------------------------|
----------------------------------|----------------------------------|
----------------------------------|----------------------------------|
--10p--5--12p--5--13p--5--12p--5--|--10p--8--12p--8--13p--8--12p--8--|
----------------------------------|----------------------------------|
----------------------------------|----------------------------------|


   E   E   E   E   E   E   E   E      E   E   E   E   E   E   E   E   
----------------------------------|----------------------------------|
----------------------------------|----------------------------------|
----------------------------------|----------------------------------|
--10p--0--12p--0--13p--0--12p--0--|--10p--0--12p--0--13p--0--12p--0--|
----------------------------------|----------------------------------|
----------------------------------|----------------------------------|


   T       T       T       T          T       T       T       T       
   E   E   E   E   E   E   E   E      E   E   E   E   E   E   E   E   
----------------------------------|----------------------------------|
----------------------------------|----------------------------------|
----------------------------------|----------------------------------|
--10p--5--12p--5--13p--5--12p--5--|--10p--8--12p--8--13p--8--12p--8--|
----------------------------------|----------------------------------|
----------------------------------|----------------------------------|


   E   E   E   E   E   E   E   E      E   E   E   E   E   E   E   E   
----------------------------------|----------------------------------|
----------------------------------|----------------------------------|
----------------------------------|----------------------------------|
--10p--0--12p--0--13p--0--12p--0--|--10p--0--12p--0--13p--0--12p--0--|
----------------------------------|----------------------------------|
----------------------------------|----------------------------------|


   T       T       T       T          T       T       T       T                           
   E   E   E   E   E   E   E   E      E   E   E   E   E   E   E   E     W                 
----------------------------------|----------------------------------|-------------------|
----------------------------------|----------------------------------|-------------------|
----------------------------------|----------------------------------|-------------------|
--10p--5--12p--5--13p--5--12p--5--|--10p--8--12p--8--13p--8--12p--8--|-------------------|
----------------------------------|----------------------------------|--0----------------|
----------------------------------|----------------------------------|--0----------------|


                                          W                                         
-------|-------|-------|-------|-------|-------------------|-------|-------|-------|
-------|-------|-------|-------|-------|-------------------|-------|-------|-------|
-------|-------|-------|-------|-------|-------------------|-------|-------|-------|
-------|-------|-------|-------|-------|-------------------|-------|-------|-------|
-------|-------|-------|-------|-------|--0----------------|-------|-------|-------|
-------|-------|-------|-------|-------|--0----------------|-------|-------|-------|


  S S S S S S S S S S S S S    S S S S S S S S S S S S S S    S S S S S S S S S S S S S  
----------------------------|------------------------------|----------------------------|
----------------------------|------------------------------|----------------------------|
----------------------------|------------------------------|----------------------------|
----------------------------|------------------------------|----------------------------|
--0-0-0---0-0-0-------0-0-0-|------0-0-0-------0-0-----0-0-|--0-0-----0-0---------0-0-0-|
--0-0-0---0-0-0-------0-0-0-|------0-0-0-------0-0-----0-0-|--0-0-----0-0---------0-0-0-|


  S S S S S S S S S S S S S S    S S S S S S S S S S S S S    S S S S S S S S S S S S S S  
------------------------------|----------------------------|------------------------------|
------------------------------|----------------------------|------------------------------|
------------------------------|----------------------------|------------------------------|
------------------------------|----------------------------|------------------------------|
------0-0-0-------0-0-----0-0-|--0-0-----0-0---------0-0-0-|------0-0-0-------0-0-----0-0-|
------0-0-0-------0-0-----0-0-|--0-0-----0-0---------0-0-0-|------0-0-0-------0-0-----0-0-|


  S S S S S S S S S S S S S    S S S S S S S S S S S S S S    S S S S S S S S S S S S S S S S  
----------------------------|------------------------------|----------------------------------|
----------------------------|------------------------------|----------------------------------|
----------------------------|------------------------------|----------------------------------|
----------------------------|------------------------------|----------------------------------|
--0-0-----0-0---------0-0-0-|------0-0-0-------0-0-----0-0-|--0-0-0---0-0-0-------0-0-0-------|
--0-0-----0-0---------0-0-0-|------0-0-0-------0-0-----0-0-|--0-0-0---0-0-0-------0-0-0-------|


  S S S S S S S S S S S S S S    S S S S S S S S S S S S S S S S  
------------------------------|----------------------------------|
------------------------------|----------------------------------|
------------------------------|----------------------------------|
------------------------------|----------------------------------|
------0-0-0-------0-0-----0-0-|--0-0-----0-0---------0-0-0-------|
------0-0-0-------0-0-----0-0-|--0-0-----0-0---------0-0-0-------|


  S S S S S S S S S S S S S S    S S S S S S S S S S S S S    S S S S S S S S S S S S S S  
------------------------------|----------------------------|------------------------------|
------------------------------|----------------------------|------------------------------|
------------------------------|----------------------------|------------------------------|
------------------------------|----------------------------|------------------------------|
------0-0-0-------0-0-----0-0-|--0-0-0---0-0-0-------0-0-0-|------0-0-0-------0-0-----0-0-|
------0-0-0-------0-0-----0-0-|--0-0-0---0-0-0-------0-0-0-|------0-0-0-------0-0-----0-0-|


  S S S S S S S S S S S S S    S S S S S S S S S S S S S S    E  E   E  E  E  E  E   E   
----------------------------|------------------------------|----------------------------|
----------------------------|------------------------------|----------------------------|
----------------------------|------------------------------|---------------------9s--7--|
----------------------------|------------------------------|--------10-----7------------|
--0-0-----0-0---------0-0-0-|------0-0-0-------0-0-----0-0-|----------------------------|
--0-0-----0-0---------0-0-0-|------0-0-0-------0-0-----0-0-|--8-------------------------|


  E  E  E  E  E  E  E     E  E  E  E  E  E  E     E  E  E  E  E  E  E   
-----------------------|-----------------------|-----------------------|
-----------------------|-----------------------|-----------------------|
--------5-----------7--|-----------------------|--------3-----2-----5--|
--------------8--------|--------7-----5--------|-----------------------|
-----------------------|--------------------7--|-----------------------|
--5--------------------|--0--------------------|--3--------------------|


  E  E   E  E  E  E  E   E     E  E  E  E  E  E  E     E  E  E  E  E  E  E   
----------------------------|-----------------------|-----------------------|
----------------------------|-----------------------|-----------------------|
---------------------9s--7--|--------5-----------7--|-----------------------|
--------10-----7------------|--------------8--------|--------7-----5--------|
----------------------------|-----------------------|--------------------7--|
--8-------------------------|--5--------------------|--0--------------------|


  E  E  E  E  E  E  E     E  E   E  E  E  E  E   E     E  E  E  E  E  E  E   
-----------------------|----------------------------|-----------------------|
-----------------------|----------------------------|-----------------------|
--------3-----2-----5--|---------------------9s--7--|--------5-----------7--|
-----------------------|--------10-----7------------|--------------8--------|
-----------------------|----------------------------|-----------------------|
--3--------------------|--8-------------------------|--5--------------------|


  E  E  E  E  E  E  E     E  E  E  E  E  E  E     E  E   E  E  E  E  E   E   
-----------------------|-----------------------|----------------------------|
-----------------------|-----------------------|----------------------------|
-----------------------|--------3-----2-----5--|---------------------9s--7--|
--------7-----5--------|-----------------------|--------10-----7------------|
--------------------7--|-----------------------|----------------------------|
--0--------------------|--3--------------------|--8-------------------------|


  E  E  E  E  E  E  E     E  E  E    E  E  E  E      W                 
-----------------------|--5-------------------0--|--12----------------|
-----------------------|-----6----------8--------|--------------------|
--------5-----------7--|--------7s--10-----------|--------------------|
--------------8--------|-------------------------|--------------------|
-----------------------|-------------------------|--------------------|
--5--------------------|-------------------------|--------------------|


  S S S S S S S S S S S S S S S S    S S S S S S S S S S S S S S S    S S S S S S S S S  
----------------------------------|--------------------------------|--------------------|
----------------------------------|--------------------------------|--------------------|
----------------------------------|--------------------------------|--------------------|
----------------------------------|--------------------------------|--------------------|
--8-8-8-8-8-8-8-8-8---------------|------0---5-5-5---5-5-5---5-5-5-|--0-0-0-0-0-0-0-0-0-|
--8-8-8-8-8-8-8-8-8---------------|------0---5-5-5---5-5-5---5-5-5-|--0-0-0-0-0-0-0-0-0-|


  S S S S S S S S S S S S S S S    S S S S S S S S S S S S S S S S  
--------------------------------|----------------------------------|
--------------------------------|----------------------------------|
--------------------------------|----------------------------------|
--------------------------------|----------------------------------|
------0---3-3-3---3-3-3---3-3-3-|--8-8-8-8-8-8-8-8-8---------------|
------0---3-3-3---3-3-3---3-3-3-|--8-8-8-8-8-8-8-8-8---------------|


  S S S S S S S S S S S S S S S    S S S S S S S S S    S S S S S S S S S S S S S S S  
--------------------------------|--------------------|--------------------------------|
--------------------------------|--------------------|--------------------------------|
--------------------------------|--------------------|--------------------------------|
--------------------------------|--------------------|--------------------------------|
------0---5-5-5---5-5-5---5-5-5-|--0-0-0-0-0-0-0-0-0-|------0---3-3-3---3-3-3---3-3-3-|
------0---5-5-5---5-5-5---5-5-5-|--0-0-0-0-0-0-0-0-0-|------0---3-3-3---3-3-3---3-3-3-|


  S S S S S S S S  E    E  E  E     S S S S S S S S  E    E  E  E   
---------------------------------|---------------------------------|
---------------------------------|---------------------------------|
------------------12S--10--------|------------------10S--12--------|
---------------------------------|---------------------------------|
--8-8-8---8-8-8---10S---8--------|--5-5-5---5-5-5----8S--10--------|
--8-8-8---8-8-8------------------|--5-5-5---5-5-5------------------|


  S S S S S S S S E    E  E  E     S S S S S S S S  E    E  E  E   
--------------------------------|---------------------------------|
--------------------------------|---------------------------------|
------------------9S--10--------|------------------12S--10--------|
--------------------------------|---------------------------------|
--0-0-0---0-0-0---7S---8--------|--3-3-3---3-3-3---10S---8--------|
--0-0-0---0-0-0-----------------|--3-3-3---3-3-3------------------|


  S S S S S S S S  E    E  E  E     S S S S S S S S  E    E  E  E   
---------------------------------|---------------------------------|
---------------------------------|---------------------------------|
------------------12S--10--------|------------------10S--12--------|
---------------------------------|---------------------------------|
--8-8-8---8-8-8---10S---8--------|--5-5-5---5-5-5----8S--10--------|
--8-8-8---8-8-8------------------|--5-5-5---5-5-5------------------|


  S S S S S S S S E    E  E  E     S S S S S S S S  E   E  E  E   
--------------------------------|--------------------------------|
--------------------------------|--------------------------------|
------------------9S--10--------|------------------10S--9--------|
--------------------------------|--------------------------------|
--0-0-0---0-0-0---7S---8--------|--3-3-3---3-3-3----8S--7--------|
--0-0-0---0-0-0-----------------|--3-3-3---3-3-3-----------------|


  S S S S S S S S S S S S S S S S    S S S S S S S S S S S S S S S S  
----------------------------------|----------------------------------|
----------------------------------|----------------------------------|
----------------------------------|----------------------------------|
----------------------------------|----------------------------------|
--0-0-0---0-0-0-------0-------0---|--0-0-0-------0-------0-0-0-------|
--1-1-1---1-1-1-------1-------1---|--1-1-1-------1-------1-1-1-------|


  S S S S S S S S S S S S S S S S    S S S S S S S S S S S S S S S S  
----------------------------------|----------------------------------|
----------------------------------|----------------------------------|
----------------------------------|----------------------------------|
----------------------------------|----------------------------------|
--0-0-0---0-0-0-------0-------0---|--0-0-0-------0-------0-0-0-------|
--1-1-1---1-1-1-------1-------1---|--1-1-1-------1-------1-1-1-------|


  S S S S S S S S S S S S S S S S    S S S S S S S S S S S S S S S S  
----------------------------------|----------------------------------|
----------------------------------|----------------------------------|
----------------------------------|----------------------------------|
----------------------------------|----------------------------------|
--0-0-0---0-0-0-------0-------0---|--0-0-0-------0-------0-0-0-------|
--1-1-1---1-1-1-------1-------1---|--1-1-1-------1-------1-1-1-------|


  S S S S S S S S S S S S S S S S    S S S S S S S S S S S S S S S S                  
----------------------------------|----------------------------------|-------|-------|
----------------------------------|----------------------------------|-------|-------|
----------------------------------|----------------------------------|-------|-------|
----------------------------------|----------------------------------|-------|-------|
--0-0-0---0-0-0-------0-------0---|--0-0-0-------0-------0-0-0-------|-------|-------|
--1-1-1---1-1-1-------1-------1---|--1-1-1-------1-------1-1-1-------|-------|-------|


   E   E   E   E   E   E   E    E      E   E   E   E   E   E   E    E   
-----------------------------------|-----------------------------------|
-----------------------------------|-----------------------------------|
-----------------------------------|--------------------------17s--16--|
--15--19--17------15--17--19s--20--|------20--17------17--19-----------|
--------------19-------------------|--19----------19-------------------|
-----------------------------------|-----------------------------------|


   E   E   E   E   E   E   E    E      E   E   E   E   E   E   E    E   
-----------------------------------|-----------------------------------|
-----------------------------------|-----------------------------------|
-----------------------------------|--------------------------17s--16--|
--15--19--17------15--17--19s--20--|------20--17------17--19-----------|
--------------19-------------------|--19----------19-------------------|
-----------------------------------|-----------------------------------|


  S S S S S S S S S S S S S S S S    S S S S S S S S S S S S S S S S  
----------------------------------|----------------------------------|
----------------------------------|----------------------------------|
----------------------------------|----------------------------------|
----------------------------------|----------------------------------|
--0-0-0-0-0-----------0-------0-0-|--0-------0-------0-0-0-0-0-------|
--0-0-0-0-0-----------0-------0-0-|--0-------0-------0-0-0-0-0-------|


  S S S S S S S S S S S S S S S S    S S S S S S S S S S S S S S S S  
----------------------------------|----------------------------------|
----------------------------------|----------------------------------|
----------------------------------|----------------------------------|
----------------------------------|----------------------------------|
--0-0-0-0-0-----------0-------0-0-|--0-------0-------0-0-0-0-0-------|
--0-0-0-0-0-----------0-------0-0-|--0-------0-------0-0-0-0-0-------|


   E   E   E   E   E   E   E    E      E   E   E   E   E   E   E    E   
-----------------------------------|-----------------------------------|
-----------------------------------|-----------------------------------|
-----------------------------------|--------------------------17s--16--|
--15--19--17------15--17--19s--20--|------20--17------17--19-----------|
--------------19-------------------|--19----------19-------------------|
-----------------------------------|-----------------------------------|


   E   E   E   E   E   E   E    E      E   E   E   E   E   E   E    E   
-----------------------------------|-----------------------------------|
-----------------------------------|-----------------------------------|
-----------------------------------|--------------------------17s--16--|
--15--19--17------15--17--19s--20--|------20--17------17--19-----------|
--------------19-------------------|--19----------19-------------------|
-----------------------------------|-----------------------------------|


   E   E   E   E   E   E   E    E      E   E   E   E   E   E   E    E   
-----------------------------------|-----------------------------------|
-----------------------------------|-----------------------------------|
-----------------------------------|--------------------------14s--12--|
--12--15--14------12--14--15s--17--|------17--14------14--15-----------|
--------------15-------------------|--15----------15-------------------|
-----------------------------------|-----------------------------------|


   E   E   E   E   E   E   E    E      E   E   E   E   E   E   E    E   
-----------------------------------|-----------------------------------|
-----------------------------------|-----------------------------------|
-----------------------------------|--------------------------14s--12--|
--12--15--14------12--14--15s--17--|------17--14------14--15-----------|
--------------15-------------------|--15----------15-------------------|
-----------------------------------|-----------------------------------|


   E   E   E   E   E   E   E    E      E   E   E   E   E   E   E    E   
-----------------------------------|-----------------------------------|
-----------------------------------|-----------------------------------|
-----------------------------------|--------------------------14s--12--|
--12--15--14------12--14--15s--17--|------17--14------14--15-----------|
--------------15-------------------|--15----------15-------------------|
-----------------------------------|-----------------------------------|


   E   E   E   E   E   E   E    E      E   E   E   E   E   E   E    E   
-----------------------------------|-----------------------------------|
-----------------------------------|-----------------------------------|
-----------------------------------|--------------------------14s--12--|
--12--15--14------12--14--15s--17--|------17--14------14--15-----------|
--------------15-------------------|--15----------15-------------------|
-----------------------------------|-----------------------------------|


   E   E   E   E   E   E   E    E      E   E   E   E   E   E   E    E   
-----------------------------------|-----------------------------------|
-----------------------------------|-----------------------------------|
-----------------------------------|--------------------------17s--16--|
--15--19--17------15--17--19s--20--|------20--17------17--19-----------|
--------------19-------------------|--19----------19-------------------|
-----------------------------------|-----------------------------------|


   E   E   E   E   E   E   E    E      E   E   E   E   E   E   E    E   
-----------------------------------|-----------------------------------|
-----------------------------------|-----------------------------------|
-----------------------------------|--------------------------17s--16--|
--15--19--17------15--17--19s--20--|------20--17------17--19-----------|
--------------19-------------------|--19----------19-------------------|
-----------------------------------|-----------------------------------|


   E   E   E   E   E   E   E    E      E   E   E   E   E   E   E    E   
-----------------------------------|-----------------------------------|
-----------------------------------|-----------------------------------|
-----------------------------------|--------------------------17s--16--|
--15--19--17------15--17--19s--20--|------20--17------17--19-----------|
--------------19-------------------|--19----------19-------------------|
-----------------------------------|-----------------------------------|


   E   E   E   E   E   E   E    E      E   E   E   E   E   E   E    E   
-----------------------------------|-----------------------------------|
-----------------------------------|-----------------------------------|
-----------------------------------|--------------------------17s--16--|
--15--19--17------15--17--19s--20--|------20--17------17--19-----------|
--------------19-------------------|--19----------19-------------------|
-----------------------------------|-----------------------------------|


  S S S S S S S S S S S S S S S S    S S S S S S S S S S S S S S S S  
----------------------------------|----------------------------------|
----------------------------------|----------------------------------|
----------------------------------|----------------------------------|
----------------------------------|----------------------------------|
--0-0-0-0-0-----------0-------0-0-|--0-------0-------0-0-0-0-0-------|
--0-0-0-0-0-----------0-------0-0-|--0-------0-------0-0-0-0-0-------|


  S S S S S S S S S S S S S S S S    S S S S S S S S S S S S S S S S  
----------------------------------|----------------------------------|
----------------------------------|----------------------------------|
----------------------------------|----------------------------------|
----------------------------------|----------------------------------|
--0-0-0-0-0-----------0-------0-0-|--0-------0-------0-0-0-0-0-------|
--0-0-0-0-0-----------0-------0-0-|--0-------0-------0-0-0-0-0-------|


  S S S S S S S S S S S S S S S S    S S S S S S S S S S S S S S S S  
----------------------------------|----------------------------------|
----------------------------------|----------------------------------|
----------------------------------|----------------------------------|
----------------------------------|----------------------------------|
--0-0-0-0-0-----------0-------0-0-|--0-------0-------0-0-0-0-0-------|
--0-0-0-0-0-----------0-------0-0-|--0-------0-------0-0-0-0-0-------|


  S S S S S S S S S S S S S S S S    S S S S S S S S S S S S S S S S  
----------------------------------|----------------------------------|
----------------------------------|----------------------------------|
----------------------------------|----------------------------------|
----------------------------------|----------------------------------|
--0-0-0-0-0-----------0-------0-0-|--0-------0-------0-0-0-0-0-------|
--0-0-0-0-0-----------0-------0-0-|--0-------0-------0-0-0-0-0-------|


  S S S S S S S S S S S S S S    S S S S S S S S S S S S S S S S  
------------------------------|----------------------------------|
------------------------------|----------------------------------|
------------------------------|----------------------------------|
------------------------------|----------------------------------|
--0-0-0-0-0-----------0-------|------------------0-0-0-0-0-------|
--0-0-0-0-0-----------0-------|------------------0-0-0-0-0-------|


  S S S S S S S S S S S S S S S S    S S S S S S S S S S S S S S S S  
----------------------------------|----------------------------------|
----------------------------------|----------------------------------|
----------------------------------|----------------------------------|
----------------------------------|----------------------------------|
--0-0-0-0-0-----------0-------0-0-|--0-------0-------0-0-0-0-0-------|
--0-0-0-0-0-----------0-------0-0-|--0-------0-------0-0-0-0-0-------|


  S S S S S S S S S S S S S S S S    S S S S S S S S S S S S S S S S  
----------------------------------|----------------------------------|
----------------------------------|----------------------------------|
----------------------------------|----------------------------------|
----------------------------------|----------------------------------|
--0-0-0-0-0-----------0-------0-0-|--0-------0-------0-0-0-0-0-------|
--0-0-0-0-0-----------0-------0-0-|--0-------0-------0-0-0-0-0-------|


  S S S S S S S S S S S S S S S S    S S S S S S S S S S S S S S S S  
----------------------------------|----------------------------------|
----------------------------------|----------------------------------|
----------------------------------|----------------------------------|
----------------------------------|----------------------------------|
--0-0-0-0-0-----------0-------0-0-|--0-------0-------0-0-0-0-0-------|
--0-0-0-0-0-----------0-------0-0-|--0-------0-------0-0-0-0-0-------|


  S S S S S S S S S S S S S S S S    S S S S S S S S S S S S S S S S    Q      
----------------------------------|----------------------------------|-------||
----------------------------------|----------------------------------|-------||
----------------------------------|----------------------------------|-------||
----------------------------------|----------------------------------|-------||
--0-0-0-0-0-----------0-------0-0-|--0-------0-------0-0-0-0-0-------|--0----||
--0-0-0-0-0-----------0-------0-0-|--0-------0-------0-0-0-0-0-------|--0----||




Duration Legend
---------------
W - whole
H - half
Q - quarter
E - 8th
S - 16th
T - 32nd
X - 64th
. - note dotted
|-n-|  - n-tuplets


Tablature Legend
----------------
L - tied note
x - dead note
g - grace note
(n) - ghost note
> - accentuded note
NH - natural harmonic
AH - artificial harmonic
TH - tapped harmonic
SH - semi harmonic
PH - pitch harmonic
h - hammer on
p - pull off
b - bend
br - bendRelease
pb - preBend
pbr - preBendRelease
brb - bendReleaseBend
\n/ - tremolo bar dip
\n - tremolo bar dive
-/n - tremolo bar Release up
/n\ - tremolo bar inverted dip
/n - tremolo bar return
-\n - tremolo bar Release down
S - shift slide
s - legato slide
/ -  slide into from below or out of upwards
\ -  slide into from above or out of downwards
~ - vibrato
W - wide vibrato
tr - trill
TP - tremolo picking
T - tapping
S - slap
P - pop
< - fade in
^ - brush up
v - brush down

comments
We did not receive enough feedback on this tab! Please rate:
print report bad tab
1 2 3 4 5
I want to post or [tab]
guest
You may want to rate the tab now too:
select rating
Please do not post tabs as comments. Select "correction" instead!