Oops, an error
Loading. Please wait.

Such Creatures Exist - Zombie Throwdown Tab

44 views 1 this week
no commentswrite comment
1 2 3 4 5
please rate
add to favorites launch autoscroll
font size
0
reset
Autoscroll
+/-
esc
set tempo
stop
Contributor
Difficulty
Tuning
intermediate
C G C F A D
WARNING: You are trying to view
                                    content from Ultimate-Guitar.com
                                    in an unauthorized application,
                                    which is prohibited.

                                    Please use an official Ultimate
                                    Guitar Tabs application for iPhone,
                                    iPad or Android to access legitimate
                                    chords, guitar, bass, and drum tabs
                                    from Ultimate-Guitar.com database.

                                    Type "ultimate guitar tabs" in Apple
                                    App Store's or Android Market's
                                    search to find the application.
     Zombie Throwdown                                         


                                                                           Such Creatures Exist
Guitar 1



     S S S S S S S S S S S S S S S S    S S S S S S S S S S S S S S S S    S S S S S  
D||----------------------------------|----------------------------------|------------|
A||----------------------------------|----------------------------------|------------|
F||----------------------------------|----------------------------------|------------|
C||----------------------------------|----------------------------------|------------|
G||--0-0-0-0-0-----------0-------0-0-|--0-------0-------0-0-0-0-0-------|--0-0-0-0-0-|
C||--0-0-0-0-0-----------0-------0-0-|--0-------0-------0-0-0-0-0-------|--0-0-0-0-0-|


  S S S S S S S S S S S S S S S S    S S S S S S S S S S S S S S S S  
----------------------------------|----------------------------------|
----------------------------------|----------------------------------|
----------------------------------|----------------------------------|
----------------------------------|----------------------------------|
----------0-------0-0-0-0-0-------|--0-0-0-0-0-----------0-------0-0-|
----------0-------0-0-0-0-0-------|--0-0-0-0-0-----------0-------0-0-|


  S S S S S S S S S S S S S S S S    S S S S S    S S S S S S S S S S S S S S S S  
----------------------------------|------------|----------------------------------|
----------------------------------|------------|----------------------------------|
----------------------------------|------------|----------------------------------|
----------------------------------|------------|----------------------------------|
--0-------0-------0-0-0-0-0-------|--0-0-0-0-0-|----------0-------0-0-0-0-0-------|
--0-------0-------0-0-0-0-0-------|--0-0-0-0-0-|----------0-------0-0-0-0-0-------|


  S S S S S S S S S S S S S S S S    S S S S S S S S S S S S S S S S    S S S S S  
----------------------------------|----------------------------------|------------|
----------------------------------|----------------------------------|------------|
----------------------------------|----------------------------------|------------|
----------------------------------|----------------------------------|------------|
--0-0-0-0-0-----------0-------0-0-|--0-------0-------0-0-0-0-0-------|--0-0-0-0-0-|
--0-0-0-0-0-----------0-------0-0-|--0-------0-------0-0-0-0-0-------|--0-0-0-0-0-|


  S S S S S S S S S S S S S S S S    S S S S S S S S S S S S S S S S  
----------------------------------|----------------------------------|
----------------------------------|----------------------------------|
----------------------------------|----------------------------------|
----------------------------------|----------------------------------|
----------0-------0-0-0-0-0-------|--0-0-0-0-0-----------0-------0-0-|
----------0-------0-0-0-0-0-------|--0-0-0-0-0-----------0-------0-0-|


  S S S S S S S S S S S S S S S S    S S S S S    S S S S S S S S S S S S S S S S  
----------------------------------|------------|----------------------------------|
----------------------------------|------------|----------------------------------|
----------------------------------|------------|----------------------------------|
----------------------------------|------------|----------------------------------|
--0-------0-------0-0-0-0-0-------|--0-0-0-0-0-|----------0-------0-0-0-0-0-------|
--0-------0-------0-0-0-0-0-------|--0-0-0-0-0-|----------0-------0-0-0-0-0-------|


  E  E  E  E  E  E  E  E     E  E  E  E  E  E  E  E     E  E  E  E  E  E  E  E   
--------------------------|--------------------------|--------------------------|
--------------------------|--------------------------|--------------------------|
--------------------------|--------------------------|--------------------------|
--------------------------|--------------------------|--------------------------|
--0-----0--0-----0--0--0--|--5-----5--5-----5--5--5--|--8-----8--8-----8--8--8--|
--0-----0--0-----0--0--0--|--5-----5--5-----5--5--5--|--8-----8--8-----8--8--8--|


   Q     Q     Q     Q       E  E  E  E  E  E  E  E     E  E  E  E  E  E  E  E   
--------------------------|--------------------------|--------------------------|
--------------------------|--------------------------|--------------------------|
--10----10----10----10----|--------------------------|--------------------------|
--------------------------|--------------------------|--------------------------|
---8-----8-----8-----8----|--0-----0--0-----0--0--0--|--5-----5--5-----5--5--5--|
--------------------------|--0-----0--0-----0--0--0--|--5-----5--5-----5--5--5--|


  E  E  E  E  E  E  E  E      Q     Q     Q     Q       E  E  E  E  E  E  E  E   
--------------------------|--------------------------|--------------------------|
--------------------------|--------------------------|--------------------------|
--------------------------|--10----10----10----10----|--------------------------|
--------------------------|--------------------------|--------------------------|
--8-----8--8-----8--8--8--|---8-----8-----8-----8----|--0-----0--0-----0--0--0--|
--8-----8--8-----8--8--8--|--------------------------|--0-----0--0-----0--0--0--|


  E  E  E  E  E  E  E  E     E  E  E  E  E  E  E  E     Q    Q    Q    Q     
--------------------------|--------------------------|----------------------|
--------------------------|--------------------------|--6----6----6----6----|
--------------------------|--------------------------|--9----9----9----9----|
--------------------------|--------------------------|----------------------|
--5-----5--5-----5--5--5--|--8-----8--8-----8--8--8--|----------------------|
--5-----5--5-----5--5--5--|--8-----8--8-----8--8--8--|----------------------|


  E  E  E  E  E  E  E  E     E  E  E  E  E  E  E  E     E  E  E  E  E  E  E  E   
--------------------------|--------------------------|--------------------------|
--------------------------|--------------------------|--------------------------|
--------------------------|--------------------------|--------------------------|
--------------------------|--------------------------|--------------------------|
--0-----0--0-----0--0--0--|--5-----5--5-----5--5--5--|--8-----8--8-----8--8--8--|
--0-----0--0-----0--0--0--|--5-----5--5-----5--5--5--|--8-----8--8-----8--8--8--|


  Q    Q    Q    Q       S S S S S S S S S S S S S S S S    S S S S S S S S S S S S S S S S  
----------------------|----------------------------------|----------------------------------|
----------------------|----------------------------------|----------------------------------|
----------------------|----------------------------------|----------------------------------|
----------------------|----------------------------------|----------------------------------|
--0----0----0----0----|--0-0-0-0-0-----------0-------0-0-|--0-------0-------0-0-0-0-0-------|
--1----1----1----1----|--0-0-0-0-0-----------0-------0-0-|--0-------0-------0-0-0-0-0-------|


  S S S S S S S S S S S S S S S S    S S S S S S S S S S S S Q     
----------------------------------|-------------------------------|
----------------------------------|--------------------------6----|
----------------------------------|--------------------------9----|
----------------------------------|-------------------------------|
--0-0-0-0-0-----------0-------0-0-|--0-------0-------0-0-0--------|
--0-0-0-0-0-----------0-------0-0-|--0-------0-------0-0-0--------|


  S S S S S S S S S S S S S S S S    S S S S S S S S S S S S S S S S  
----------------------------------|----------------------------------|
----------------------------------|----------------------------------|
----------------------------------|----------------------------------|
----------------------------------|----------------------------------|
--0-0-0-0-0-----------0-------0-0-|--0-------0-------0-0-0-0-0-------|
--0-0-0-0-0-----------0-------0-0-|--0-------0-------0-0-0-0-0-------|


  S S S S S S S S S S S S S S S S    S S S S S S S S S S S S Q     
----------------------------------|-------------------------------|
----------------------------------|--------------------------6----|
----------------------------------|--------------------------9----|
----------------------------------|-------------------------------|
--0-0-0-0-0-----------0-------0-0-|--0-------0-------0-0-0--------|
--0-0-0-0-0-----------0-------0-0-|--0-------0-------0-0-0--------|


  S S S S S S S S S S S S S S S S    S S S S S S S S S S S S S S S S  
----------------------------------|----------------------------------|
----------------------------------|----------------------------------|
----------------------------------|----------------------------------|
----------------------------------|----------------------------------|
--0-0-0-0-0-----------0-------0-0-|--0-------0-------0-0-0-0-0-------|
--0-0-0-0-0-----------0-------0-0-|--0-------0-------0-0-0-0-0-------|


  S S S S S S S S S S S S S S S S    S S S S S S S S S S S S Q     
----------------------------------|-------------------------------|
----------------------------------|--------------------------6----|
----------------------------------|--------------------------9----|
----------------------------------|-------------------------------|
--0-0-0-0-0-----------0-------0-0-|--0-------0-------0-0-0--------|
--0-0-0-0-0-----------0-------0-0-|--0-------0-------0-0-0--------|


  S S S S S S S S S S S S S S S S    S S S S S S S S S S S S S S S S  
----------------------------------|----------------------------------|
----------------------------------|----------------------------------|
----------------------------------|----------------------------------|
----------------------------------|----------------------------------|
--0-0-0-0-0-----------0-------0-0-|--0-------0-------0-0-0-0-0-------|
--0-0-0-0-0-----------0-------0-0-|--0-------0-------0-0-0-0-0-------|


  S S S S S S S S S S S S S S S S    S S S S S S S S S S S S Q     
----------------------------------|-------------------------------|
----------------------------------|--------------------------6----|
----------------------------------|--------------------------9----|
----------------------------------|-------------------------------|
--0-0-0-0-0-----------0-------0-0-|--0-------0-------0-0-0--------|
--0-0-0-0-0-----------0-------0-0-|--0-------0-------0-0-0--------|


  E  E  E  E  E  E   E   E     E  E  E  E  E  E  E     E  E  E  E  E  E  E   
----------------------------|-----------------------|-----------------------|
----------------------------|-----------------------|-----------------------|
----------------------------|-----------------------|-----------------------|
--------7-----------10s--8--|--------7-----5-----8--|--------3-----2--------|
--------------8-------------|-----------------------|--------------------3--|
--8--8----------------------|--5--5-----------------|--0--0-----------------|


  E  E  E  E  E  E  E     E  E  E  E  E  E   E   E     E  E  E  E  E  E  E   
-----------------------|----------------------------|-----------------------|
-----------------------|----------------------------|-----------------------|
-----------------------|----------------------------|-----------------------|
--------5-----3-----7--|--------7-----------10s--8--|--------7-----5-----8--|
-----------------------|--------------8-------------|-----------------------|
--3--3-----------------|--8--8----------------------|--5--5-----------------|


  E  E  E  E  E  E  E     E  E  E  E  E  E  E     E  E  E  E  E  E   E   E   
-----------------------|-----------------------|----------------------------|
-----------------------|-----------------------|----------------------------|
-----------------------|-----------------------|----------------------------|
--------3-----2--------|--------5-----3-----7--|--------7-----------10s--8--|
--------------------3--|-----------------------|--------------8-------------|
--0--0-----------------|--3--3-----------------|--8--8----------------------|


  E  E  E  E  E  E  E     E  E  E  E  E  E  E     E  E  E  E  E  E  E   
-----------------------|-----------------------|-----------------------|
-----------------------|-----------------------|-----------------------|
-----------------------|-----------------------|-----------------------|
--------7-----5-----8--|--------3-----2--------|--------5-----3-----7--|
-----------------------|--------------------3--|-----------------------|
--5--5-----------------|--0--0-----------------|--3--3-----------------|


  E  E  E  E  E  E   E   E     E  E  E  E  E  E  E     E  E  E  E  E  E  E   
----------------------------|-----------------------|-----------------------|
----------------------------|-----------------------|-----------------------|
----------------------------|-----------------------|-----------------------|
--------7-----------10s--8--|--------7-----5-----8--|--------3-----2--------|
--------------8-------------|-----------------------|--------------------3--|
--8--8----------------------|--5--5-----------------|--0--0-----------------|


  E  E  E  E  E  E  E     S S S S S S S S S    S S S S S S S S S S S S S S S  
-----------------------|--------------------|--------------------------------|
-----------------------|--------------------|--------------------------------|
-----------------------|--------------------|--------------------------------|
--------5-----3-----7--|--------------------|--------------------------------|
-----------------------|--8-8-8-8-8-8-8-8-8-|------0---5-5-5---5-5-5---5-5-5-|
--3--3-----------------|--8-8-8-8-8-8-8-8-8-|------0---5-5-5---5-5-5---5-5-5-|


  S S S S S S S S S    S S S S S S S S S S S S S S S    S S S S S S S S S  
--------------------|--------------------------------|--------------------|
--------------------|--------------------------------|--------------------|
--------------------|--------------------------------|--------------------|
--------------------|--------------------------------|--------------------|
--0-0-0-0-0-0-0-0-0-|------0---3-3-3---3-3-3---3-3-3-|--8-8-8-8-8-8-8-8-8-|
--0-0-0-0-0-0-0-0-0-|------0---3-3-3---3-3-3---3-3-3-|--8-8-8-8-8-8-8-8-8-|


  S S S S S S S S S S S S S S S    S S S S S S S S S    S S S S S S S S S S S S S S S  
--------------------------------|--------------------|--------------------------------|
--------------------------------|--------------------|--------------------------------|
--------------------------------|--------------------|--------------------------------|
--------------------------------|--------------------|--------------------------------|
------0---5-5-5---5-5-5---5-5-5-|--0-0-0-0-0-0-0-0-0-|------0---3-3-3---3-3-3---3-3-3-|
------0---5-5-5---5-5-5---5-5-5-|--0-0-0-0-0-0-0-0-0-|------0---3-3-3---3-3-3---3-3-3-|


  S S S S S S S S S    S S S S S S S S S S S S S S S    S S S S S S S S S  
--------------------|--------------------------------|--------------------|
--------------------|--------------------------------|--------------------|
--------------------|--------------------------------|--------------------|
--------------------|--------------------------------|--------------------|
--8-8-8-8-8-8-8-8-8-|------0---5-5-5---5-5-5---5-5-5-|--0-0-0-0-0-0-0-0-0-|
--8-8-8-8-8-8-8-8-8-|------0---5-5-5---5-5-5---5-5-5-|--0-0-0-0-0-0-0-0-0-|


  S S S S S S S S S S S S S S S    S S S S S S S S S    S S S S S S S S S S S S S S S  
--------------------------------|--------------------|--------------------------------|
--------------------------------|--------------------|--------------------------------|
--------------------------------|--------------------|--------------------------------|
--------------------------------|--------------------|--------------------------------|
------0---3-3-3---3-3-3---3-3-3-|--8-8-8-8-8-8-8-8-8-|------0---5-5-5---5-5-5---5-5-5-|
------0---3-3-3---3-3-3---3-3-3-|--8-8-8-8-8-8-8-8-8-|------0---5-5-5---5-5-5---5-5-5-|


  S S S S S S S S S    S S S S S S S S S S S S S S S                                          
--------------------|--------------------------------|----|----|----|----|----|----|----|----|
--------------------|--------------------------------|----|----|----|----|----|----|----|----|
--------------------|--------------------------------|----|----|----|----|----|----|----|----|
--------------------|--------------------------------|----|----|----|----|----|----|----|----|
--0-0-0-0-0-0-0-0-0-|------0---3-3-3---3-3-3---3-3-3-|----|----|----|----|----|----|----|----|
--0-0-0-0-0-0-0-0-0-|------0---3-3-3---3-3-3---3-3-3-|----|----|----|----|----|----|----|----|


  S S S S S S S S S S S S S S    S S S S S S S S S S S S S S S    S S S S S S S S S S S S S S  
------------------------------|--------------------------------|------------------------------|
------------------------------|--------------------------------|------------------------------|
------------------------------|--------------------------------|------------------------------|
------------------------------|--------------------------------|------------------------------|
--0-0-0-----------------------|--0-0-0-------0-0-0-------0-0-0-|--0-0-0-----------------------|
--0-0-0-----------------------|--0-0-0-------0-0-0-------0-0-0-|--0-0-0-----------------------|


  S S S S S S S S S S S S S S S    S S S S    S S S S S S S S S S S S S S S    S S S S  
--------------------------------|----------|--------------------------------|----------|
--------------------------------|----------|--------------------------------|----------|
--------------------------------|----------|--------------------------------|----------|
--------------------------------|----------|--------------------------------|----------|
--0-0-0-------0-0-0-------0-0-0-|--0-0-0---|--0-0-0-------0-0-0-------0-0-0-|--0-0-0---|
--0-0-0-------0-0-0-------0-0-0-|--0-0-0---|--0-0-0-------0-0-0-------0-0-0-|--0-0-0---|


  S S S    S S S S S S S S S S S S S S    S S S S S S S S S S S S S S S  
--------|------------------------------|--------------------------------|
--------|------------------------------|--------------------------------|
--------|------------------------------|--------------------------------|
--------|------------------------------|--------------------------------|
--0-0-0-|--0-0-0-----------------------|--0-0-0-------0-0-0-------0-0-0-|
--0-0-0-|--0-0-0-----------------------|--0-0-0-------0-0-0-------0-0-0-|


  S S S S S S S S S S S S S S    S S S S S S S S S S S S S S S    S S S S  
------------------------------|--------------------------------|----------|
------------------------------|--------------------------------|----------|
------------------------------|--------------------------------|----------|
------------------------------|--------------------------------|----------|
--0-0-0-----------------------|--0-0-0-------0-0-0-------0-0-0-|--0-0-0---|
--0-0-0-----------------------|--0-0-0-------0-0-0-------0-0-0-|--0-0-0---|


  S S S S S S S S S S S S S S S    S S S S    S S S S S S S S S S S S S S S S              
--------------------------------|----------|----------------------------------|-----|-----|
--------------------------------|----------|----------------------------------|-----|-----|
--------------------------------|----------|----------------------------------|-----|-----|
--------------------------------|----------|----------------------------------|-----|-----|
--0-0-0-------0-0-0-------0-0-0-|--0-0-0---|--0-0-0-----------0-0-0-0-0-0-0-0-|-----|-----|
--0-0-0-------0-0-0-------0-0-0-|--0-0-0---|--0-0-0-----------0-0-0-0-0-0-0-0-|-----|-----|


  S S S S S S S S S S S S S S S S    S S S S S S S S S S S S S S S  
----------------------------------|--------------------------------|
----------------------------------|--------------------------------|
----------------------------------|--------------------------------|
----------------------------------|--------------------------------|
--0-----------0-0-0---0-0-0-------|------0-0-0---0-0-0---0---0---0-|
--0-----------0-0-0---0-0-0-------|------0-0-0---0-0-0---0---0---0-|


  S S S S S S S S S S S S S S S S    S S S S S S S S S S S S S S S  
----------------------------------|--------------------------------|
----------------------------------|--------------------------------|
----------------------------------|--------------------------------|
----------------------------------|--------------------------------|
--1-----------1-1-1---1-1-4-------|------4-4-4---4-4-4---4---4---4-|
--1-----------1-1-1---1-1-4-------|------4-4-4---4-4-4---4---4---4-|


  S S S S S S S S S S S S S S S S    S S S S S S S S S S S S S S S  
----------------------------------|--------------------------------|
----------------------------------|--------------------------------|
----------------------------------|--------------------------------|
----------------------------------|--------------------------------|
--0-----------0-0-0---0-0-0-------|------0-0-0---0-0-0---0---0---0-|
--0-----------0-0-0---0-0-0-------|------0-0-0---0-0-0---0---0---0-|


  S S S S S S S S S S S S S S S S    S S S S S S S S S S S S S S S  
----------------------------------|--------------------------------|
----------------------------------|--------------------------------|
----------------------------------|--------------------------------|
----------------------------------|--------------------------------|
--1-----------1-1-1---1-1-4-------|------4-4-4---4-4-4---4---4---4-|
--1-----------1-1-1---1-1-4-------|------4-4-4---4-4-4---4---4---4-|


  S S S S S S S S S S S S S S S S    S S S S S S S S S S S S S S S  
----------------------------------|--------------------------------|
----------------------------------|--------------------------------|
----------------------------------|--------------------------------|
----------------------------------|--------------------------------|
--0-----------0-0-0---0-0-0-------|------0-0-0---0-0-0---0---0---0-|
--0-----------0-0-0---0-0-0-------|------0-0-0---0-0-0---0---0---0-|


  S S S S S S S S S S S S S S S S    S S S S S S S S S S S S S S S  
----------------------------------|--------------------------------|
----------------------------------|--------------------------------|
----------------------------------|--------------------------------|
----------------------------------|--------------------------------|
--1-----------1-1-1---1-1-4-------|------4-4-4---4-4-4---4---4---4-|
--1-----------1-1-1---1-1-4-------|------4-4-4---4-4-4---4---4---4-|


  S S S S S S S S S S S S S S S S    S S S S S S S S S S S S S S S  
----------------------------------|--------------------------------|
----------------------------------|--------------------------------|
----------------------------------|--------------------------------|
----------------------------------|--------------------------------|
--0-----------0-0-0---0-0-0-------|------0-0-0---0-0-0---0---0---0-|
--0-----------0-0-0---0-0-0-------|------0-0-0---0-0-0---0---0---0-|


  S S S S S S S S S S S S S S S S    S S S S S S S S S S S S S S S  
----------------------------------|--------------------------------|
----------------------------------|--------------------------------|
----------------------------------|--------------------------------|
----------------------------------|--------------------------------|
--1-----------1-1-1---1-1-4-------|------4-4-4---4-4-4---4---4---4-|
--1-----------1-1-1---1-1-4-------|------4-4-4---4-4-4---4---4---4-|


  S S S S S S S S S S S S S S S S    S S S S S S S S S S S S S S S  
----------------------------------|--------------------------------|
----------------------------------|--------------------------------|
----------------------------------|--------------------------------|
----------------------------------|--------------------------------|
--0-----------0-0-0---0-0-0-------|------0-0-0---0-0-0---0---0---0-|
--0-----------0-0-0---0-0-0-------|------0-0-0---0-0-0---0---0---0-|


  S S S S S S S S S S S S S S S S    S S S S S S S S S S S S S S S  
----------------------------------|--------------------------------|
----------------------------------|--------------------------------|
----------------------------------|--------------------------------|
----------------------------------|--------------------------------|
--5-----------5-5-5---5-5-8-------|------8-8-8---8-8-8---8---8---8-|
--5-----------5-5-5---5-5-8-------|------8-8-8---8-8-8---8---8---8-|


  S S S S S S S S S S S S S S S S    S S S S S S S S S S S S S S S  
----------------------------------|--------------------------------|
----------------------------------|--------------------------------|
----------------------------------|--------------------------------|
----------------------------------|--------------------------------|
--0-----------0-0-0---0-0-0-------|------0-0-0---0-0-0---0---0---0-|
--0-----------0-0-0---0-0-0-------|------0-0-0---0-0-0---0---0---0-|


  S S S S S S S S S S S S S S S S    S S S S S S S S S S S S S S S  
----------------------------------|--------------------------------|
----------------------------------|--------------------------------|
----------------------------------|--------------------------------|
----------------------------------|--------------------------------|
--5-----------5-5-5---5-5-8-------|------8-8-8---8-8-8---8---8---8-|
--5-----------5-5-5---5-5-8-------|------8-8-8---8-8-8---8---8---8-|


  S S S S S S S S S S S S S S S S    S S S S S S S S S S S S S S S  
----------------------------------|--------------------------------|
----------------------------------|--------------------------------|
----------------------------------|--------------------------------|
----------------------------------|--------------------------------|
--0-----------0-0-0---0-0-0-------|------0-0-0---0-0-0---0---0---0-|
--0-----------0-0-0---0-0-0-------|------0-0-0---0-0-0---0---0---0-|


  S S S S S S S S S S S S S S S S    S S S S S S S S S S S S S S S  
----------------------------------|--------------------------------|
----------------------------------|--------------------------------|
----------------------------------|--------------------------------|
----------------------------------|--------------------------------|
--5-----------5-5-5---5-5-8-------|------8-8-8---8-8-8---8---8---8-|
--5-----------5-5-5---5-5-8-------|------8-8-8---8-8-8---8---8---8-|


  S S S S S S S S S S S S S S S S    S S S S S S S S S S S S S S S  
----------------------------------|--------------------------------|
----------------------------------|--------------------------------|
----------------------------------|--------------------------------|
----------------------------------|--------------------------------|
--0-----------0-0-0---0-0-0-------|------0-0-0---0-0-0---0---0---0-|
--0-----------0-0-0---0-0-0-------|------0-0-0---0-0-0---0---0---0-|


  S S S S S S S S S S S S S S S S    S S S S S S S S S S S S S S S    W                       
----------------------------------|--------------------------------|-------------------|-----|
----------------------------------|--------------------------------|-------------------|-----|
----------------------------------|--------------------------------|-------------------|-----|
----------------------------------|--------------------------------|-------------------|-----|
--5-----------5-5-5---5-5-8-------|------8-8-8---8-8-8---8---8---8-|--0----------------|-----|
--5-----------5-5-5---5-5-8-------|------8-8-8---8-8-8---8---8---8-|--0----------------|-----|


                          W                                     S S S S S S S S S S S S S  
-----|-----|-----|-----|-------------------|-----|-----|-----|----------------------------|
-----|-----|-----|-----|-------------------|-----|-----|-----|----------------------------|
-----|-----|-----|-----|-------------------|-----|-----|-----|----------------------------|
-----|-----|-----|-----|-------------------|-----|-----|-----|----------------------------|
-----|-----|-----|-----|--0----------------|-----|-----|-----|--0-0-0---0-0-0-------0-0-0-|
-----|-----|-----|-----|--0----------------|-----|-----|-----|--0-0-0---0-0-0-------0-0-0-|


  S S S S S S S S S S S S S S    S S S S S S S S S S S S S    S S S S S S S S S S S S S S  
------------------------------|----------------------------|------------------------------|
------------------------------|----------------------------|------------------------------|
------------------------------|----------------------------|------------------------------|
------------------------------|----------------------------|------------------------------|
------0-0-0-------0-0-----0-0-|--0-0-----0-0---------0-0-0-|------0-0-0-------0-0-----0-0-|
------0-0-0-------0-0-----0-0-|--0-0-----0-0---------0-0-0-|------0-0-0-------0-0-----0-0-|


  S S S S S S S S S S S S S    S S S S S S S S S S S S S S    S S S S S S S S S S S S S  
----------------------------|------------------------------|----------------------------|
----------------------------|------------------------------|----------------------------|
----------------------------|------------------------------|----------------------------|
----------------------------|------------------------------|----------------------------|
--0-0-----0-0---------0-0-0-|------0-0-0-------0-0-----0-0-|--0-0-----0-0---------0-0-0-|
--0-0-----0-0---------0-0-0-|------0-0-0-------0-0-----0-0-|--0-0-----0-0---------0-0-0-|


  S S S S S S S S S S S S S S    S S S S S S S S S S S S S S S S  
------------------------------|----------------------------------|
------------------------------|----------------------------------|
------------------------------|----------------------------------|
------------------------------|----------------------------------|
------0-0-0-------0-0-----0-0-|--0-0-0---0-0-0-------0-0-0-------|
------0-0-0-------0-0-----0-0-|--0-0-0---0-0-0-------0-0-0-------|


  S S S S S S S S S S S S S S    S S S S S S S S S S S S S S S S  
------------------------------|----------------------------------|
------------------------------|----------------------------------|
------------------------------|----------------------------------|
------------------------------|----------------------------------|
------0-0-0-------0-0-----0-0-|--0-0-----0-0---------0-0-0-------|
------0-0-0-------0-0-----0-0-|--0-0-----0-0---------0-0-0-------|


  S S S S S S S S S S S S S S    S S S S S S S S S S S S S    S S S S S S S S S S S S S S  
------------------------------|----------------------------|------------------------------|
------------------------------|----------------------------|------------------------------|
------------------------------|----------------------------|------------------------------|
------------------------------|----------------------------|------------------------------|
------0-0-0-------0-0-----0-0-|--0-0-0---0-0-0-------0-0-0-|------0-0-0-------0-0-----0-0-|
------0-0-0-------0-0-----0-0-|--0-0-0---0-0-0-------0-0-0-|------0-0-0-------0-0-----0-0-|


  S S S S S S S S S S S S S    S S S S S S S S S S S S S S     W                 
----------------------------|------------------------------|--13----------------|
----------------------------|------------------------------|--13----------------|
----------------------------|------------------------------|--10----------------|
----------------------------|------------------------------|--10----------------|
--0-0-----0-0---------0-0-0-|------0-0-0-------0-0-----0-0-|--------------------|
--0-0-----0-0---------0-0-0-|------0-0-0-------0-0-----0-0-|--------------------|


   W                   W                    W                    W                 
--12----------------|--8----------------|--10----------------|--13----------------|
--------------------|-------------------|--------------------|--13----------------|
---9----------------|--5----------------|---7----------------|--10----------------|
--10----------------|--7----------------|---7----------------|--10----------------|
--------------------|-------------------|--------------------|--------------------|
--------------------|-------------------|--------------------|--------------------|


   W                   W                    W                    W                 
--12----------------|--8----------------|--10----------------|--13----------------|
--------------------|-------------------|--------------------|--13----------------|
---9----------------|--5----------------|---7----------------|--10----------------|
--10----------------|--7----------------|---7----------------|--10----------------|
--------------------|-------------------|--------------------|--------------------|
--------------------|-------------------|--------------------|--------------------|


   W                   W                    W                    W                 
--12----------------|--8----------------|--10----------------|--13----------------|
--------------------|-------------------|--------------------|--13----------------|
---9----------------|--5----------------|---7----------------|--10----------------|
--10----------------|--7----------------|---7----------------|--10----------------|
--------------------|-------------------|--------------------|--------------------|
--------------------|-------------------|--------------------|--------------------|


   W                   W                                     
--12----------------|--8----------------|-------------------|
--------------------|-------------------|-------------------|
---9----------------|--5----------------|-------------------|
--10----------------|--7----------------|-------------------|
--------------------|-------------------|-------------------|
--------------------|-------------------|-------------------|


  S S S S S S S S S S S S S S S S    S S S S S S S S S S S S S S S    S S S S S S S S S  
----------------------------------|--------------------------------|--------------------|
----------------------------------|--------------------------------|--------------------|
----------------------------------|--------------------------------|--------------------|
----------------------------------|--------------------------------|--------------------|
--8-8-8-8-8-8-8-8-8---------------|------0---5-5-5---5-5-5---5-5-5-|--0-0-0-0-0-0-0-0-0-|
--8-8-8-8-8-8-8-8-8---------------|------0---5-5-5---5-5-5---5-5-5-|--0-0-0-0-0-0-0-0-0-|


  S S S S S S S S S S S S S S S    S S S S S S S S S S S S S S S S  
--------------------------------|----------------------------------|
--------------------------------|----------------------------------|
--------------------------------|----------------------------------|
--------------------------------|----------------------------------|
------0---3-3-3---3-3-3---3-3-3-|--8-8-8-8-8-8-8-8-8---------------|
------0---3-3-3---3-3-3---3-3-3-|--8-8-8-8-8-8-8-8-8---------------|


  S S S S S S S S S S S S S S S    S S S S S S S S S    S S S S S S S S S S S S S S S  
--------------------------------|--------------------|--------------------------------|
--------------------------------|--------------------|--------------------------------|
--------------------------------|--------------------|--------------------------------|
--------------------------------|--------------------|--------------------------------|
------0---5-5-5---5-5-5---5-5-5-|--0-0-0-0-0-0-0-0-0-|------0---3-3-3---3-3-3---3-3-3-|
------0---5-5-5---5-5-5---5-5-5-|--0-0-0-0-0-0-0-0-0-|------0---3-3-3---3-3-3---3-3-3-|


  S S S S S S S S E   E  E  E     S S S S S S S S E    E  E  E   
-------------------------------|--------------------------------|
-------------------------------|--------------------------------|
------------------9S--7--------|------------------7S--10--------|
-------------------------------|--------------------------------|
--8-8-8---8-8-8---7S--5--------|--5-5-5---5-5-5---5S---8--------|
--8-8-8---8-8-8----------------|--5-5-5---5-5-5-----------------|


  S S S S S S S S E   E  E  E     S S S S S S S S E   E  E  E   
-------------------------------|-------------------------------|
-------------------------------|-------------------------------|
------------------5S--7--------|------------------9S--7--------|
-------------------------------|-------------------------------|
--0-0-0---0-0-0---3S--5--------|--3-3-3---3-3-3---7S--5--------|
--0-0-0---0-0-0----------------|--3-3-3---3-3-3----------------|


  S S S S S S S S E   E  E  E     S S S S S S S S E    E  E  E   
-------------------------------|--------------------------------|
-------------------------------|--------------------------------|
------------------9S--7--------|------------------7S--10--------|
-------------------------------|--------------------------------|
--8-8-8---8-8-8---7S--5--------|--5-5-5---5-5-5---5S---8--------|
--8-8-8---8-8-8----------------|--5-5-5---5-5-5-----------------|


  S S S S S S S S E   E  E  E     S S S S S S S S E   E  E  E   
-------------------------------|-------------------------------|
-------------------------------|-------------------------------|
------------------5S--7--------|------------------7S--6--------|
-------------------------------|-------------------------------|
--0-0-0---0-0-0---3S--5--------|--3-3-3---3-3-3---5S--4--------|
--0-0-0---0-0-0----------------|--3-3-3---3-3-3----------------|


  S S S S S S S S S S S S S S S S    S S S S S S S S S S S S S S S S  
----------------------------------|----------------------------------|
----------------------------------|----------------------------------|
----------------------------------|----------------------------------|
----------------------------------|----------------------------------|
--0-0-0---0-0-0-------0-------0---|--0-0-0-------0-------0-0-0-------|
--1-1-1---1-1-1-------1-------1---|--1-1-1-------1-------1-1-1-------|


  S S S S S S S S S S S S S S S S    S S S S S S S S S S S S S S S S  
----------------------------------|----------------------------------|
----------------------------------|----------------------------------|
----------------------------------|----------------------------------|
----------------------------------|----------------------------------|
--0-0-0---0-0-0-------0-------0---|--0-0-0-------0-------0-0-0-------|
--1-1-1---1-1-1-------1-------1---|--1-1-1-------1-------1-1-1-------|


  S S S S S S S S S S S S S S S S    S S S S S S S S S S S S S S S S  
----------------------------------|----------------------------------|
----------------------------------|----------------------------------|
----------------------------------|----------------------------------|
----------------------------------|----------------------------------|
--0-0-0---0-0-0-------0-------0---|--0-0-0-------0-------0-0-0-------|
--1-1-1---1-1-1-------1-------1---|--1-1-1-------1-------1-1-1-------|


  S S S S S S S S S S S S S S S S    S S S S S S S S S S S S S S S S    W                 
----------------------------------|----------------------------------|-------------------|
----------------------------------|----------------------------------|-------------------|
----------------------------------|----------------------------------|-------------------|
----------------------------------|----------------------------------|-------------------|
--0-0-0---0-0-0-------0-------0---|--0-0-0-------0-------0-0-0-------|--0----------------|
--1-1-1---1-1-1-------1-------1---|--1-1-1-------1-------1-1-1-------|--0----------------|


         E   E   E   E   E   E   E    E      E   E   E   E   E   E   E    E   
-----|-----------------------------------|-----------------------------------|
-----|-----------------------------------|-----------------------------------|
-----|-----------------------------------|--------------------------14s--12--|
-----|--12--15--14------12--14--15s--17--|------17--14------14--15-----------|
-----|--------------15-------------------|--15----------15-------------------|
-----|-----------------------------------|-----------------------------------|


   E   E   E   E   E   E   E    E      E   E   E   E   E   E   E    E   
-----------------------------------|-----------------------------------|
-----------------------------------|-----------------------------------|
-----------------------------------|--------------------------14s--12--|
--12--15--14------12--14--15s--17--|------17--14------14--15-----------|
--------------15-------------------|--15----------15-------------------|
-----------------------------------|-----------------------------------|


   E   E   E   E   E   E   E    E      E   E   E   E   E   E   E    E   
-----------------------------------|-----------------------------------|
-----------------------------------|-----------------------------------|
-----------------------------------|--------------------------14s--12--|
--12--15--14------12--14--15s--17--|------17--14------14--15-----------|
--------------15-------------------|--15----------15-------------------|
-----------------------------------|-----------------------------------|


   E   E   E   E   E   E   E    E      E   E   E   E   E   E   E    E   
-----------------------------------|-----------------------------------|
-----------------------------------|-----------------------------------|
-----------------------------------|--------------------------14s--12--|
--12--15--14------12--14--15s--17--|------17--14------14--15-----------|
--------------15-------------------|--15----------15-------------------|
-----------------------------------|-----------------------------------|


  S S S S S S S S S S S S S S S S    S S S S S S S S S S S S S S S S  
----------------------------------|----------------------------------|
----------------------------------|----------------------------------|
----------------------------------|----------------------------------|
----------------------------------|----------------------------------|
--0-0-0-0-0-----------0-------0-0-|--0-------0-------0-0-0-0-0-------|
--0-0-0-0-0-----------0-------0-0-|--0-------0-------0-0-0-0-0-------|


  S S S S S S S S S S S S S S S S    S S S S S S S S S S S S S S S S  
----------------------------------|----------------------------------|
----------------------------------|----------------------------------|
----------------------------------|----------------------------------|
----------------------------------|----------------------------------|
--0-0-0-0-0-----------0-------0-0-|--0-------0-------0-0-0-0-0-------|
--0-0-0-0-0-----------0-------0-0-|--0-------0-------0-0-0-0-0-------|


  S S S S S S S S S S S S S S S S    S S S S S S S S S S S S S S S S  
----------------------------------|----------------------------------|
----------------------------------|----------------------------------|
----------------------------------|----------------------------------|
----------------------------------|----------------------------------|
--0-0-0-0-0-----------0-------0-0-|--0-------0-------0-0-0-0-0-------|
--0-0-0-0-0-----------0-------0-0-|--0-------0-------0-0-0-0-0-------|


  S S S S S S S S S S S S S S S S    S S S S S S S S S S S S S S S S  
----------------------------------|----------------------------------|
----------------------------------|----------------------------------|
----------------------------------|----------------------------------|
----------------------------------|----------------------------------|
--0-0-0-0-0-----------0-------0-0-|--0-------0-------0-0-0-0-0-------|
--0-0-0-0-0-----------0-------0-0-|--0-------0-------0-0-0-0-0-------|


  S S S S S S S S S S S S S S S S    S S S S S S S S S S S S S S S S  
----------------------------------|----------------------------------|
----------------------------------|----------------------------------|
----------------------------------|----------------------------------|
----------------------------------|----------------------------------|
--0-0-0-0-0-----------0-------0-0-|--0-------0-------0-0-0-0-0-------|
--0-0-0-0-0-----------0-------0-0-|--0-------0-------0-0-0-0-0-------|


  S S S S S S S S S S S S S S S S    S S S S S S S S S S S S S S S S  
----------------------------------|----------------------------------|
----------------------------------|----------------------------------|
----------------------------------|----------------------------------|
----------------------------------|----------------------------------|
--0-0-0-0-0-----------0-------0-0-|--0-------0-------0-0-0-0-0-------|
--0-0-0-0-0-----------0-------0-0-|--0-------0-------0-0-0-0-0-------|


  S S S S S S S S S S S S S S S S    S S S S S S S S S S S S S S S S  
----------------------------------|----------------------------------|
----------------------------------|----------------------------------|
----------------------------------|----------------------------------|
----------------------------------|----------------------------------|
--0-0-0-0-0-----------0-------0-0-|--0-------0-------0-0-0-0-0-------|
--0-0-0-0-0-----------0-------0-0-|--0-------0-------0-0-0-0-0-------|


  S S S S S S S S S S S S S S S S    S S S S S S S S S S S S S S S S  
----------------------------------|----------------------------------|
----------------------------------|----------------------------------|
----------------------------------|----------------------------------|
----------------------------------|----------------------------------|
--0-0-0-0-0-----------0-------0-0-|--0-------0-------0-0-0-0-0-------|
--0-0-0-0-0-----------0-------0-0-|--0-------0-------0-0-0-0-0-------|


  S S S S S S S S S S S S S S S S    S S S S S S S S S S S S S S S S  
----------------------------------|----------------------------------|
----------------------------------|----------------------------------|
----------------------------------|----------------------------------|
----------------------------------|----------------------------------|
--0-0-0-0-0-----------0-------0-0-|--0-------0-------0-0-0-0-0-------|
--0-0-0-0-0-----------0-------0-0-|--0-------0-------0-0-0-0-0-------|


  S S S S S S S S S S S S S S S S    S S S S S S S S S S S S S S S S  
----------------------------------|----------------------------------|
----------------------------------|----------------------------------|
----------------------------------|----------------------------------|
----------------------------------|----------------------------------|
--0-0-0-0-0-----------0-------0-0-|--0-------0-------0-0-0-0-0-------|
--0-0-0-0-0-----------0-------0-0-|--0-------0-------0-0-0-0-0-------|


  S S S S S S S S S S S S S S S S    S S S S S S S S S S S S S S S S  
----------------------------------|----------------------------------|
----------------------------------|----------------------------------|
----------------------------------|----------------------------------|
----------------------------------|----------------------------------|
--0-0-0-0-0-----------0-------0-0-|--0-------0-------0-0-0-0-0-------|
--0-0-0-0-0-----------0-------0-0-|--0-------0-------0-0-0-0-0-------|


  S S S S S S S S S S S S S S S S    S S S S S S S S S S S S S S S S  
----------------------------------|----------------------------------|
----------------------------------|----------------------------------|
----------------------------------|----------------------------------|
----------------------------------|----------------------------------|
--0-0-0-0-0-----------0-------0-0-|--0-------0-------0-0-0-0-0-------|
--0-0-0-0-0-----------0-------0-0-|--0-------0-------0-0-0-0-0-------|


  S S S S S S S S S S S S S S S S    S S S S S S S S S S S S S S S S  
----------------------------------|----------------------------------|
----------------------------------|----------------------------------|
----------------------------------|----------------------------------|
----------------------------------|----------------------------------|
--0-0-0-0-0-----------0-------0-0-|--0-------0-------0-0-0-0-0-------|
--0-0-0-0-0-----------0-------0-0-|--0-------0-------0-0-0-0-0-------|


  S S S S S S S S S S S S S S S S    S S S S S S S S S S S S S S S S  
----------------------------------|----------------------------------|
----------------------------------|----------------------------------|
----------------------------------|----------------------------------|
----------------------------------|----------------------------------|
--0-0-0-0-0-----------0-------0-0-|--0-------0-------0-0-0-0-0-------|
--0-0-0-0-0-----------0-------0-0-|--0-------0-------0-0-0-0-0-------|


  S S S S S S S S S S S S S S S S    S S S S S S S S S S S S S S S S  
----------------------------------|----------------------------------|
----------------------------------|----------------------------------|
----------------------------------|----------------------------------|
----------------------------------|----------------------------------|
------------------------------0-0-|--0-------0-------0-0-0-0-0-------|
------------------------------0-0-|--0-------0-------0-0-0-0-0-------|


  S S S S S S S S S S S S S S S S    S S S S S S S S S S S S S S S S  
----------------------------------|----------------------------------|
----------------------------------|----------------------------------|
----------------------------------|----------------------------------|
----------------------------------|----------------------------------|
--0-0-0-0-0-----------0-------0-0-|--0-------0-------0-0-0-0-0-------|
--0-0-0-0-0-----------0-------0-0-|--0-------0-------0-0-0-0-0-------|


  S S S S S S S S S S S S S S S S    S S S S S S S S S S S S S S S S  
----------------------------------|----------------------------------|
----------------------------------|----------------------------------|
----------------------------------|----------------------------------|
----------------------------------|----------------------------------|
--0-0-0-0-0-----------0-------0-0-|--0-------0-------0-0-0-0-0-------|
--0-0-0-0-0-----------0-------0-0-|--0-------0-------0-0-0-0-0-------|


  S S S S S S S S S S S S S S S S    S S S S S S S S S S S S S S S S  
----------------------------------|----------------------------------|
----------------------------------|----------------------------------|
----------------------------------|----------------------------------|
----------------------------------|----------------------------------|
--0-0-0-0-0-----------0-------0-0-|--0-------0-------0-0-0-0-0-------|
--0-0-0-0-0-----------0-------0-0-|--0-------0-------0-0-0-0-0-------|


  S S S S S S S S S S S S S S S S    S S S S S S S S S S S S S S S S    E    
----------------------------------|----------------------------------|-----||
----------------------------------|----------------------------------|-----||
----------------------------------|----------------------------------|-----||
----------------------------------|----------------------------------|-----||
--0-0-0-0-0-----------0-------0-0-|--0-------0-------0-0-0-0-0-------|--0--||
--0-0-0-0-0-----------0-------0-0-|--0-------0-------0-0-0-0-0-------|--0--||





Guitar 2



      S  S  S  S  S S S S S S  S S S S  S  S     S S S S  S S S S  S  S  S  S  S S S S  
D||--17-13--------------------13-------17-13-|-----------17-------17-13----------------|
A||--------15--------------------------------|--15----------------------15-------------|
F||-----------14-----------------------------|-----------------------------14----------|
C||--------------15--------------------------|--------------------------------15-------|
G||------------------------------------------|-----------------------------------------|
C||------------------------------------------|-----------------------------------------|


   S  S  S  S  S    S S S S S S S S S S S S S S S S  
--17-13----------|----------------------------------|
--------15-------|----------------------------------|
-----------14----|----------------------------------|
--------------15-|----------------------------------|
-----------------|----------0-------0-0-0-0-0-------|
-----------------|----------0-------0-0-0-0-0-------|


   S  S  S  S  S S S S S S  S S S S  S  S     S S S S  S S S S  S  S  S  S  S S S S  
--17-13--------------------13-------17-13-|-----------17-------17-13----------------|
--------15--------------------------------|--15----------------------15-------------|
-----------14-----------------------------|-----------------------------14----------|
--------------15--------------------------|--------------------------------15-------|
------------------------------------------|-----------------------------------------|
------------------------------------------|-----------------------------------------|


   S  S  S  S  S    S S S S S S S S S S S S S S S S  
--17-13----------|----------------------------------|
--------15-------|----------------------------------|
-----------14----|----------------------------------|
--------------15-|----------------------------------|
-----------------|----------0-------0-0-0-0-0-------|
-----------------|----------0-------0-0-0-0-0-------|


   S  S  S  S  S S S S S S  S S S S  S  S     S S S S  S S S S  S  S  S  S  S S S S  
--17-13--------------------13-------17-13-|-----------17-------17-13----------------|
--------15--------------------------------|--15----------------------15-------------|
-----------14-----------------------------|-----------------------------14----------|
--------------15--------------------------|--------------------------------15-------|
------------------------------------------|-----------------------------------------|
------------------------------------------|-----------------------------------------|


   S  S  S  S  S    S S S S S S S S S S S S S S S S  
--17-13----------|----------------------------------|
--------15-------|----------------------------------|
-----------14----|----------------------------------|
--------------15-|----------------------------------|
-----------------|----------0-------0-0-0-0-0-------|
-----------------|----------0-------0-0-0-0-0-------|


   S  S  S  S  S S S S S S  S S S S  S  S     S S S S  S S S S  S  S  S  S  S S S S  
--17-13--------------------13-------17-13-|-----------17-------17-13----------------|
--------15--------------------------------|--15----------------------15-------------|
-----------14-----------------------------|-----------------------------14----------|
--------------15--------------------------|--------------------------------15-------|
------------------------------------------|-----------------------------------------|
------------------------------------------|-----------------------------------------|


   S  S  S  S  S    S S S S S S S S S S S S S S S S    E  E  E  E  E  E  E  E   
--17-13----------|----------------------------------|--------------------------|
--------15-------|----------------------------------|--------------------------|
-----------14----|----------------------------------|--------------------------|
--------------15-|----------------------------------|--------------------------|
-----------------|----------0-------0-0-0-0-0-------|--0-----0--0-----0--0--0--|
-----------------|----------0-------0-0-0-0-0-------|--0-----0--0-----0--0--0--|


  E  E  E  E  E  E  E  E     E  E  E  E  E  E  E  E      Q     Q     Q     Q     
--------------------------|--------------------------|--------------------------|
--------------------------|--------------------------|--------------------------|
--------------------------|--------------------------|--10----10----10----10----|
--------------------------|--------------------------|--------------------------|
--5-----5--5-----5--5--5--|--8-----8--8-----8--8--8--|---8-----8-----8-----8----|
--5-----5--5-----5--5--5--|--8-----8--8-----8--8--8--|--------------------------|


  E  E  E  E  E  E  E  E     E  E  E  E  E  E  E  E     E  E  E  E  E  E  E  E   
--------------------------|--------------------------|--------------------------|
--------------------------|--------------------------|--------------------------|
--------------------------|--------------------------|--------------------------|
--------------------------|--------------------------|--------------------------|
--0-----0--0-----0--0--0--|--5-----5--5-----5--5--5--|--8-----8--8-----8--8--8--|
--0-----0--0-----0--0--0--|--5-----5--5-----5--5--5--|--8-----8--8-----8--8--8--|


   Q     Q     Q     Q       E  E  E  E  E  E  E  E     E  E  E  E  E  E  E  E   
--------------------------|--------------------------|--------------------------|
--------------------------|--------------------------|--------------------------|
--10----10----10----10----|--------------------------|--------------------------|
--------------------------|--------------------------|--------------------------|
---8-----8-----8-----8----|--0-----0--0-----0--0--0--|--5-----5--5-----5--5--5--|
--------------------------|--0-----0--0-----0--0--0--|--5-----5--5-----5--5--5--|


  E  E  E  E  E  E  E  E     Q    Q    Q    Q       E  E  E  E  E  E  E  E   
--------------------------|----------------------|--------------------------|
--------------------------|--6----6----6----6----|--------------------------|
--------------------------|--9----9----9----9----|--------------------------|
--------------------------|----------------------|--------------------------|
--8-----8--8-----8--8--8--|----------------------|--0-----0--0-----0--0--0--|
--8-----8--8-----8--8--8--|----------------------|--0-----0--0-----0--0--0--|


  E  E  E  E  E  E  E  E     E  E  E  E  E  E  E  E     Q    Q    Q    Q     
--------------------------|--------------------------|----------------------|
--------------------------|--------------------------|----------------------|
--------------------------|--------------------------|----------------------|
--------------------------|--------------------------|----------------------|
--5-----5--5-----5--5--5--|--8-----8--8-----8--8--8--|--0----0----0----0----|
--5-----5--5-----5--5--5--|--8-----8--8-----8--8--8--|--1----1----1----1----|


  S S S S S S S S S S S S S S S S    S S S S S S S S S S S S S S S S  
----------------------------------|----------------------------------|
----------------------------------|----------------------------------|
----------------------------------|----------------------------------|
----------------------------------|----------------------------------|
--0-0-0-0-0-----------0-------0-0-|--0-------0-------0-0-0-0-0-------|
--0-0-0-0-0-----------0-------0-0-|--0-------0-------0-0-0-0-0-------|


  S S S S S S S S S S S S S S S S    S S S S S S S S S S S S Q     
----------------------------------|-------------------------------|
----------------------------------|--------------------------6----|
----------------------------------|--------------------------9----|
----------------------------------|-------------------------------|
--0-0-0-0-0-----------0-------0-0-|--0-------0-------0-0-0--------|
--0-0-0-0-0-----------0-------0-0-|--0-------0-------0-0-0--------|


  S S S S S S S S S S S S S S S S    S S S S S S S S S S S S S S S S  
----------------------------------|----------------------------------|
----------------------------------|----------------------------------|
----------------------------------|----------------------------------|
----------------------------------|----------------------------------|
--0-0-0-0-0-----------0-------0-0-|--0-------0-------0-0-0-0-0-------|
--0-0-0-0-0-----------0-------0-0-|--0-------0-------0-0-0-0-0-------|


  S S S S S S S S S S S S S S S S    S S S S S S S S S S S S  
----------------------------------|--------------------------|
----------------------------------|--------------------------|
----------------------------------|--------------------------|
----------------------------------|--------------------------|
--0-0-0-0-0-----------0-------0-0-|--0-------0-------0-0-0---|
--0-0-0-0-0-----------0-------0-0-|--0-------0-------0-0-0---|


  S S S S S S S S S S S S S S S S    S S S S S S S S S S S S S S S S  
----------------------------------|----------------------------------|
----------------------------------|----------------------------------|
----------------------------------|----------------------------------|
----------------------------------|----------------------------------|
--0-0-0-0-0-----------0-------0-0-|--0-------0-------0-0-0-0-0-------|
--0-0-0-0-0-----------0-------0-0-|--0-------0-------0-0-0-0-0-------|


  S S S S S S S S S S S S S S S S    S S S S S S S S S S S S Q     
----------------------------------|-------------------------------|
----------------------------------|--------------------------6----|
----------------------------------|--------------------------9----|
----------------------------------|-------------------------------|
--0-0-0-0-0-----------0-------0-0-|--0-------0-------0-0-0--------|
--0-0-0-0-0-----------0-------0-0-|--0-------0-------0-0-0--------|


  S S S S S S S S S S S S S S S S    S S S S S S S S S S S S S S S S  
----------------------------------|----------------------------------|
----------------------------------|----------------------------------|
----------------------------------|----------------------------------|
----------------------------------|----------------------------------|
--0-0-0-0-0-----------0-------0-0-|--0-------0-------0-0-0-0-0-------|
--0-0-0-0-0-----------0-------0-0-|--0-------0-------0-0-0-0-0-------|


  S S S S S S S S S S S S S S S S    S S S S S S S S S S S S Q     
----------------------------------|-------------------------------|
----------------------------------|--------------------------6----|
----------------------------------|--------------------------9----|
----------------------------------|-------------------------------|
--0-0-0-0-0-----------0-------0-0-|--0-------0-------0-0-0--------|
--0-0-0-0-0-----------0-------0-0-|--0-------0-------0-0-0--------|


  E  E   E  E  E  E  E   E     E  E  E  E  E  E  E     E  E  E  E  E  E  E   
----------------------------|-----------------------|-----------------------|
----------------------------|-----------------------|-----------------------|
---------------------9s--7--|--------5-----------7--|-----------------------|
--------10-----7------------|--------------8--------|--------7-----5--------|
----------------------------|-----------------------|--------------------7--|
--8--8----------------------|--5--5-----------------|--0--0-----------------|


  E  E  E  E  E  E  E     E  E   E  E  E  E  E   E     E  E  E  E  E  E  E   
-----------------------|----------------------------|-----------------------|
-----------------------|----------------------------|-----------------------|
--------3-----2-----5--|---------------------9s--7--|--------5-----------7--|
-----------------------|--------10-----7------------|--------------8--------|
-----------------------|----------------------------|-----------------------|
--3--3-----------------|--8--8----------------------|--5--5-----------------|


  E  E  E  E  E  E  E     E  E  E  E  E  E  E     E  E   E  E  E  E  E   E   
-----------------------|-----------------------|----------------------------|
-----------------------|-----------------------|----------------------------|
-----------------------|--------3-----2-----5--|---------------------9s--7--|
--------7-----5--------|-----------------------|--------10-----7------------|
--------------------7--|-----------------------|----------------------------|
--0--0-----------------|--3--3-----------------|--8--8----------------------|


  E  E  E  E  E  E  E     E  E  E  E  E  E  E     E  E  E  E  E  E  E   
-----------------------|-----------------------|-----------------------|
-----------------------|-----------------------|-----------------------|
--------5-----------7--|-----------------------|--------3-----2-----5--|
--------------8--------|--------7-----5--------|-----------------------|
-----------------------|--------------------7--|-----------------------|
--5--5-----------------|--0--0-----------------|--3--3-----------------|


  E  E   E  E  E  E  E   E     E  E  E  E  E  E  E     E  E  E  E  E  E  E   
----------------------------|-----------------------|--------
comments
We did not receive enough feedback on this tab! Please rate:
1 2 3 4 5
I want to post or [tab]
guest
You may want to rate the tab now too:
select rating
Please do not post tabs as comments. Select "correction" instead!