Oops, an error
Loading. Please wait.

Thb - Finally Summer Tab

25 views 1 this week
no commentswrite comment
1 2 3 4 5
please rate
add to favorites launch autoscroll
font size
0
reset
Autoscroll
+/-
esc
set tempo
stop
Contributor
Difficulty
novice
WARNING: You are trying to view
                                    content from Ultimate-Guitar.com
                                    in an unauthorized application,
                                    which is prohibited.

                                    Please use an official Ultimate
                                    Guitar Tabs application for iPhone,
                                    iPad or Android to access legitimate
                                    chords, guitar, bass, and drum tabs
                                    from Ultimate-Guitar.com database.

                                    Type "ultimate guitar tabs" in Apple
                                    App Store's or Android Market's
                                    search to find the application.
                                Finally summer                                  


                                                                             THB
Guitar



     Q    E  E  E  E  E     Q    E  E  E  E  E     Q    E  E  E  E  E   
E||----------------------|----------------------|----------------------|
B||--9-------------------|--7-------------------|--5-------------------|
G||--9----------7--9--7--|--7----------5--7--5--|--5----------3--5--3--|
D||--7----7--9-----------|--5----5--7-----------|--3----3--5-----------|
A||----------------------|----------------------|----------------------|
E||----------------------|----------------------|----------------------|


  H        E  E  E  E     Q    E  E  E  E  E     Q    E  E  E  E  E   
-----------------------|----------------------|----------------------|
--7--------------------|--9-------------------|--7-------------------|
--7--------------5--7--|--9----------7--9--7--|--7----------5--7--5--|
--5--------5--7--------|--7----7--9-----------|--5----5--7-----------|
-----------------------|----------------------|----------------------|
-----------------------|----------------------|----------------------|


                                               Vers                       
  Q    E  E  E  E  E     W                     E    E  E  E  E  E  E  E   
----------------------|-------------------||-----------------------------|
--5-------------------|-------------------||-----------------------------|
--5----------3--5--3--|--7----------------||*--3----3--3--3--3--3--3--3--|
--3----3--5-----------|--7----------------||*--3----3--3--3--3--3--3--3--|
----------------------|--5----------------||---1----1--1--1--1--1--1--1--|
----------------------|-------------------||-----------------------------|


  E  E  E  E  E  E  E  E     E  E  E  E  E  E  E  E   
--------------------------|--------------------------|
--------------------------|--------------------------|
--5--5--5--5--5--5--5--5--|--3--3--3--3--3--3--3--3--|
--5--5--5--5--5--5--5--5--|--3--3--3--3--3--3--3--3--|
--3--3--3--3--3--3--3--3--|--1--1--1--1--1--1--1--1--|
--------------------------|--------------------------|


                               Omkvæd                                        
  3                                                                          
  Q    Q    Q    E  E  E   3x  Q      E  E  E  E  E     Q    E  E  E  E  E   
---------------------------||------------------------|----------------------|
---------------------------||--9---------------------|--7-------------------|
--7----7----5----5--5--5--*||--9------------7--9--7--|--7----------5--7--5--|
--7----7----5----5--5--5--*||--7------7--9-----------|--5----5--7-----------|
--5----5----3----3--3--3---||------------------------|----------------------|
---------------------------||------------------------|----------------------|


  Q    E  E  E  E  E     H        E  E  E  E     Q    E  E  E  E  E   
----------------------|-----------------------|----------------------|
--5-------------------|--7--------------------|--9-------------------|
--5----------3--5--3--|--7--------------5--7--|--9----------7--9--7--|
--3----3--5-----------|--5--------5--7--------|--7----7--9-----------|
----------------------|-----------------------|----------------------|
----------------------|-----------------------|----------------------|


  Q    E  E  E  E  E     Q    E  E  E  E  E     W                 
----------------------|----------------------|-------------------|
--7-------------------|--5-------------------|-------------------|
--7----------5--7--5--|--5----------3--5--3--|--7----------------|
--5----5--7-----------|--3----3--5-----------|--7----------------|
----------------------|----------------------|--5----------------|
----------------------|----------------------|-------------------|


    Vers                                                  
    E    E  E  E  E  E  E  E     E  E  E  E  E  E  E  E   
|-----------------------------|--------------------------|
|-----------------------------|--------------------------|
|*--3----3--3--3--3--3--3--3--|--5--5--5--5--5--5--5--5--|
|*--3----3--3--3--3--3--3--3--|--5--5--5--5--5--5--5--5--|
|---1----1--1--1--1--1--1--1--|--3--3--3--3--3--3--3--3--|
|-----------------------------|--------------------------|


                             3                          
  E  E  E  E  E  E  E  E     Q    Q    Q    E  E  E   3x
--------------------------|---------------------------||
--------------------------|---------------------------||
--3--3--3--3--3--3--3--3--|--7----7----5----5--5--5--*||
--3--3--3--3--3--3--3--3--|--7----7----5----5--5--5--*||
--1--1--1--1--1--1--1--1--|--5----5----3----3--3--3---||
--------------------------|---------------------------||


  Omkvæd                                                               
  Q      E  E  E  E  E     Q    E  E  E  E  E     Q    E  E  E  E  E   
------------------------|----------------------|----------------------|
--9---------------------|--7-------------------|--5-------------------|
--9------------7--9--7--|--7----------5--7--5--|--5----------3--5--3--|
--7------7--9-----------|--5----5--7-----------|--3----3--5-----------|
------------------------|----------------------|----------------------|
------------------------|----------------------|----------------------|


  H        E  E  E  E     Q    E  E  E  E  E     Q    E  E  E  E  E   
-----------------------|----------------------|----------------------|
--7--------------------|--9-------------------|--7-------------------|
--7--------------5--7--|--9----------7--9--7--|--7----------5--7--5--|
--5--------5--7--------|--7----7--9-----------|--5----5--7-----------|
-----------------------|----------------------|----------------------|
-----------------------|----------------------|----------------------|


                                              Guitar solo           
  Q    E  E  E  E  E     W                    Q           H         
----------------------|-------------------|------------------------|
--5-------------------|-------------------|------------------------|
--5----------3--5--3--|--7----------------|--14br--------12--------|
--3----3--5-----------|--7----------------|------------------------|
----------------------|--5----------------|------------------------|
----------------------|-------------------|------------------------|


   E    E    E    E   E   E    Q        H         E    E   E   E    
------------------------------------|------------------------------|
--15p--12h--------------------------|---------------------12-------|
------------14p--12------12h--14----|--12--------12h--14------14h--|
---------------------14-------------|------------------------------|
------------------------------------|------------------------------|
------------------------------------|------------------------------|


   E   E   E    E   E   E    E   E      E    E   E    E   E    E   E    E   
------------------------------------|--------------------------------------|
-------------------12---------------|--15p--12-----------------------------|
--12------12h--14------14p--12------|-----------14p--12--------------------|
------14------------------------14--|--------------------14p--12--12h--14--|
------------------------------------|--------------------------------------|
------------------------------------|--------------------------------------|


   E    E    Q     Q       W                    E   E   E   E   H         
--------------------------------------------|----------------------------|
--------------------------------------------|----------------------------|
--12h--14p--12----14br----12----------------|----------------------------|
--------------------------------------------|--12--14--12--14--14--------|
--------------------------------------------|----------------------------|
--------------------------------------------|----------------------------|


   E   E   E   E   H            Q      Q      E   W                 
----------------------------|--------------------------------------|
----------------------------|--------------------------------------|
--12------------------------|--14b----14b----12--14----------------|
------14--12--14--14--------|--------------------14----------------|
----------------------------|--------------------------------------|
----------------------------|--------------------------------------|


  Omkvæd                                                               
  Q      E  E  E  E  E     Q    E  E  E  E  E     Q    E  E  E  E  E   
------------------------|----------------------|----------------------|
--9---------------------|--7-------------------|--5-------------------|
--9------------7--9--7--|--7----------5--7--5--|--5----------3--5--3--|
--7------7--9-----------|--5----5--7-----------|--3----3--5-----------|
------------------------|----------------------|----------------------|
------------------------|----------------------|----------------------|


  H        E  E  E  E     Q    E  E  E  E  E     Q    E  E  E  E  E   
-----------------------|----------------------|----------------------|
--7--------------------|--9-------------------|--7-------------------|
--7--------------5--7--|--9----------7--9--7--|--7----------5--7--5--|
--5--------5--7--------|--7----7--9-----------|--5----5--7-----------|
-----------------------|----------------------|----------------------|
-----------------------|----------------------|----------------------|


                                             PM PM PM PM PM PM PM PM  
  Q    E  E  E  E  E     W                   E  E  E  E  E  E  E  E   
----------------------|-------------------|--------------------------|
--5-------------------|-------------------|--9--9--9--9--9--9--9--9--|
--5----------3--5--3--|--7----------------|--9--9--9--9--9--9--9--9--|
--3----3--5-----------|--7----------------|--7--7--7--7--7--7--7--7--|
----------------------|--5----------------|--------------------------|
----------------------|-------------------|--------------------------|


  PM PM PM PM PM PM PM PM    PM PM PM PM PM PM PM PM  
  E  E  E  E  E  E  E  E     E  E  E  E  E  E  E  E   
--------------------------|--------------------------|
--7--7--7--7--7--7--7--7--|--5--5--5--5--5--5--5--5--|
--7--7--7--7--7--7--7--7--|--5--5--5--5--5--5--5--5--|
--5--5--5--5--5--5--5--5--|--3--3--3--3--3--3--3--3--|
--------------------------|--------------------------|
--------------------------|--------------------------|


  PM PM PM PM PM PM PM PM    PM PM PM PM PM PM PM PM  
  E  E  E  E  E  E  E  E     E  E  E  E  E  E  E  E   
--------------------------|--------------------------|
--7--7--7--7--7--7--7--7--|--9--9--9--9--9--9--9--9--|
--7--7--7--7--7--7--7--7--|--9--9--9--9--9--9--9--9--|
--5--5--5--5--5--5--5--5--|--7--7--7--7--7--7--7--7--|
--------------------------|--------------------------|
--------------------------|--------------------------|


  PM PM PM PM PM PM PM PM    PM PM PM PM PM PM PM PM                        
  E  E  E  E  E  E  E  E     E  E  E  E  E  E  E  E      W                  
--------------------------|--------------------------|---------------------|
--7--7--7--7--7--7--7--7--|--5--5--5--5--5--5--5--5--|---------------------|
--7--7--7--7--7--7--7--7--|--5--5--5--5--5--5--5--5--|--(7)----------------|
--5--5--5--5--5--5--5--5--|--3--3--3--3--3--3--3--3--|--(7)----------------|
--------------------------|--------------------------|--(5)----------------|
--------------------------|--------------------------|---------------------|


  PM PM      PM PM      PM         PM PM      PM PM      PM       
  E  E   E   E  E   E   E   E      E  E   E   E  E   E   E   E    
--------------------------------|--------------------------------|
--7--7--(9)--7--7--(9)--7--(9)--|--5--5--(7)--5--5--(7)--5--(7)--|
--7--7--(9)--7--7--(9)--7--(9)--|--5--5--(7)--5--5--(7)--5--(7)--|
--7--7--(9)--7--7--(9)--7--(9)--|--5--5--(7)--5--5--(7)--5--(7)--|
--------------------------------|--------------------------------|
--------------------------------|--------------------------------|


  PM PM      PM PM      PM         PM PM      PM PM      PM       
  E  E   E   E  E   E   E   E      E  E   E   E  E   E   E   E    
--------------------------------|--------------------------------|
--3--3--(5)--3--3--(5)--3--(5)--|--5--5--(7)--5--5--(7)--5--(7)--|
--3--3--(5)--3--3--(5)--3--(5)--|--5--5--(7)--5--5--(7)--5--(7)--|
--3--3--(5)--3--3--(5)--3--(5)--|--5--5--(7)--5--5--(7)--5--(7)--|
--------------------------------|--------------------------------|
--------------------------------|--------------------------------|


  PM PM      PM PM      PM         PM PM      PM PM      PM       
  E  E   E   E  E   E   E   E      E  E   E   E  E   E   E   E    
--------------------------------|--------------------------------|
--7--7--(9)--7--7--(9)--7--(9)--|--5--5--(7)--5--5--(7)--5--(7)--|
--7--7--(9)--7--7--(9)--7--(9)--|--5--5--(7)--5--5--(7)--5--(7)--|
--7--7--(9)--7--7--(9)--7--(9)--|--5--5--(7)--5--5--(7)--5--(7)--|
--------------------------------|--------------------------------|
--------------------------------|--------------------------------|


  PM PM      PM PM      PM                                                  
  E  E   E   E  E   E   E   E       E    E    E    E    E    E    E    E    
--------------------------------|------------------------------------------|
--3--3--(5)--3--3--(5)--3--(5)--|------------------------------------------|
--3--3--(5)--3--3--(5)--3--(5)--|--(7)--(7)--(7)--(7)--(7)--(7)--(7)--(7)--|
--3--3--(5)--3--3--(5)--3--(5)--|--(7)--(7)--(7)--(7)--(7)--(7)--(7)--(7)--|
--------------------------------|--(5)--(5)--(5)--(5)--(5)--(5)--(5)--(5)--|
--------------------------------|------------------------------------------|


  Omkvæd                                                               
  Q      E  E  E  E  E     Q    E  E  E  E  E     Q    E  E  E  E  E   
------------------------|----------------------|----------------------|
--9---------------------|--7-------------------|--5-------------------|
--9------------7--9--7--|--7----------5--7--5--|--5----------3--5--3--|
--7------7--9-----------|--5----5--7-----------|--3----3--5-----------|
------------------------|----------------------|----------------------|
------------------------|----------------------|----------------------|


  H        E  E  E  E     Q    E  E  E  E  E     Q    E  E  E  E  E   
-----------------------|----------------------|----------------------|
--7--------------------|--9-------------------|--7-------------------|
--7--------------5--7--|--9----------7--9--7--|--7----------5--7--5--|
--5--------5--7--------|--7----7--9-----------|--5----5--7-----------|
-----------------------|----------------------|----------------------|
-----------------------|----------------------|----------------------|


                                                  Omkvæd                 
  Q    E  E  E  E  E     E  Q    E  Q    Q        Q      E  E  E  E  E   
----------------------|------------------------|------------------------|
--5-------------------|------------------------|--9---------------------|
--5----------3--5--3--|--7--7----7--7----7S----|--9------------7--9--7--|
--3----3--5-----------|--7--7----7--7----7S----|--7------7--9-----------|
----------------------|--5--5----5--5----5S----|------------------------|
----------------------|------------------------|------------------------|


  Q    E  E  E  E  E     Q    E  E  E  E  E     H        E  E  E  E   
----------------------|----------------------|-----------------------|
--7-------------------|--5-------------------|--7--------------------|
--7----------5--7--5--|--5----------3--5--3--|--7--------------5--7--|
--5----5--7-----------|--3----3--5-----------|--5--------5--7--------|
----------------------|----------------------|-----------------------|
----------------------|----------------------|-----------------------|


  Q    E  E  E  E  E     Q    E  E  E  E  E     Q    E  E  E  E  E   
----------------------|----------------------|----------------------|
--9-------------------|--7-------------------|--5-------------------|
--9----------7--9--7--|--7----------5--7--5--|--5----------3--5--3--|
--7----7--9-----------|--5----5--7-----------|--3----3--5-----------|
----------------------|----------------------|----------------------|
----------------------|----------------------|----------------------|


  Q    E  E  E  E  E     W                   Q       
----------------------|-------------------|--------||
----------------------|-------------------|--------||
--7-------------------|-------------------|--------||
--7----------5--7--5--|--7----------------|--7-----||
--5----5--7-----------|--7----------------|--7\----||
----------------------|--5----------------|--5-----||




Duration Legend
---------------
W - whole
H - half
Q - quarter
E - 8th
S - 16th
T - 32nd
X - 64th
. - note dotted
|-n-|  - n-tuplets


Tablature Legend
----------------
L - tied note
x - dead note
g - grace note
(n) - ghost note
> - accentuded note
NH - natural harmonic
AH - artificial harmonic
TH - tapped harmonic
SH - semi harmonic
PH - pitch harmonic
h - hammer on
p - pull off
b - bend
br - bendRelease
pb - preBend
pbr - preBendRelease
brb - bendReleaseBend
\n/ - tremolo bar dip
\n - tremolo bar dive
-/n - tremolo bar Release up
/n\ - tremolo bar inverted dip
/n - tremolo bar return
-\n - tremolo bar Release down
S - shift slide
s - legato slide
/ -  slide into from below or out of upwards
\ -  slide into from above or out of downwards
~ - vibrato
W - wide vibrato
tr - trill
TP - tremolo picking
T - tapping
S - slap
P - pop
< - fade in
^ - brush up
v - brush down

comments
We did not receive enough feedback on this tab! Please rate:
print report bad tab
1 2 3 4 5
I want to post or [tab]
guest
You may want to rate the tab now too:
select rating
Please do not post tabs as comments. Select "correction" instead!