Oops, an error
Loading. Please wait.

The Bad Apple - The Truth Tab

483 views 1 this week
no commentswrite comment
1 2 3 4 5
please rate
add to favorites launch autoscroll
font size
0
reset
Autoscroll
+/-
esc
set tempo
stop
Contributor
Difficulty
Tuning
intermediate
C G C F A D
WARNING: You are trying to view
                                    content from Ultimate-Guitar.com
                                    in an unauthorized application,
                                    which is prohibited.

                                    Please use an official Ultimate
                                    Guitar Tabs application for iPhone,
                                    iPad or Android to access legitimate
                                    chords, guitar, bass, and drum tabs
                                    from Ultimate-Guitar.com database.

                                    Type "ultimate guitar tabs" in Apple
                                    App Store's or Android Market's
                                    search to find the application.
The Bad Apple - The Truth
Tab: Billybusa (me)
Tuning: Drop C

Clean guitar:
D||---------------------|---------------------|
A||---------------------|---------------------|
F||-------6----7--------|-------7----6--------|
C||--4------------------|--4------------------|
G||---------------------|---------------------|
C||---------------------|---------------------|

Distortion Guitar:
--------------------------|-------------------------||
--------------------------|-------------------------||
--------------------------|-------------------------||
--------------------------|-------------------------||
--9s----3s--10~-----------|--9s----3s--7~-----------||
--------------------------|-------------------------||

---------------------------------------------|
---------------------------------------------|
--------4-------6-------7-------6-------4h-6-|
---------------------------------------------|
---------------------------------------------|
--4--4----4--4----4--4----4--4----4--4-------|
  .  .    .  .    .  .    .  .    .  .

---------------------------------------------|
---------------------------------------------|
--------4-------6-------7-------6-------4h-6-|
---------------------------------------------|
---------------------------------------------|
--4--4----4--4----4--4----4--4----4--4-------|
  .  .    .  .    .  .    .  .    .  .

---------------------------------------------|
---------------------------------------------|
--------4-------6-------7-------6-------4h-6-|
---------------------------------------------|
---------------------------------------------|
--5--5----5--5----5--5----5--5----5--5-------|
  .  .    .  .    .  .    .  .    .  .

---------------------------------------------|
---------------------------------------------|
--------2-------4-------6-------4-------2h-4-|
---------------------------------------------|
---------------------------------------------|
--2--2----2--2----2--2----2--2----2--2-------|
  .  .    .  .    .  .    .  .    .  .

---------------------------------------------|
---------------------------------------------|
--------4-------6-------7-------6-------4h-6-|
---------------------------------------------|
---------------------------------------------|
--4--4----4--4----4--4----4--4----4--4-------|
  .  .    .  .    .  .    .  .    .  .

---------------------------------------------|
---------------------------------------------|
--------4-------6-------7-------6-------4h-6-|
---------------------------------------------|
---------------------------------------------|
--4--4----4--4----4--4----4--4----4--4-------|
  .  .    .  .    .  .    .  .    .  .

---------------------------------------------|
---------------------------------------------|
--------4-------6-------7-------6-------4h-6-|
---------------------------------------------|
---------------------------------------------|
--5--5----5--5----5--5----5--5----5--5-------|
  .  .    .  .    .  .    .  .    .  .

----------------------------------|---------------------------------------|
----------------------------------|---------------------------------------|
----------------------------------|---------------------------------------|
----------------------------------|--2h-4-x-x-4h-5-x-x-5h-7-x-x-7p-5-5p-4-|
--5-5-5-5-5-5-5-5-2-2-2-2-2-2-2-2-|--2h-4-x-x-4h-5-x-x-5h-7-x-x-7p-5-5p-4-|
--5-5-5-5-5-5-5-5-2-2-2-2-2-2-2-2-|--2h-4-x-x-4h-5-x-x-5h-7-x-x-7p-5-5p-4-|

-------------------------------------|---------------------------------------|
-------------------------------------|---------------------------------------|
-------------------------------------|---------------------------------------|
--2h-4-x-x-4h-5-x-x-5h-7-7-7-7-7-7-7-|--2h-4-x-x-4h-5-x-x-5p-4-x-x-4h-4-4h-4-|
--2h-4-x-x-4h-5-x-x-5h-7-7-7-7-7-7-7-|--2h-4-x-x-4h-5-x-x-5p-4-x-x-4h-4-4h-4-|
--2h-4-x-x-4h-5-x-x-5h-7-7-7-7-7-7-7-|--2h-4-x-x-4h-5-x-x-5p-4-x-x-4h-4-4h-4-|

--------------------------------------|----------------------------------|----|
--------------------------------------|----------------------------------|----|
--------------------------------------|----------------------------------|----|
--2h-4-x-x-2h-4-x-x-2h-4-x-x-2h-4-x-x-|--4-------4-------4-------4-------|----|
--2h-4-x-x-2h-4-x-x-2h-4-x-x-2h-4-x-x-|--4-------4-------4-------4-------|----|
--2h-4-x-x-2h-4-x-x-2h-4-x-x-2h-4-x-x-|--4-------4-------4-------4-------|----|

Verse 1:
----------|----------|----------|----------|----------|----------|----------|
----------|----------|----------|----------|----------|----------|----------|
----------|----------|----------|----------|----------|----------|----------|
--4-4-4-4-|--4-4-4-4-|--5-5-5-5-|--2-2-2-2-|--4-4-4-4-|--4-4-4-4-|--5-5-5-5-|
--4-4-4-4-|--4-4-4-4-|--5-5-5-5-|--2-2-2-2-|--4-4-4-4-|--4-4-4-4-|--5-5-5-5-|
--4-4-4-4-|--4-4-4-4-|--5-5-5-5-|--2-2-2-2-|--4-4-4-4-|--4-4-4-4-|--5-5-5-5-|


----------|---------------------------------------------|
----------|---------------------------------------------|
----------|--------4-------6-------7-------6-------4h-6-|
--2-2-2-2-|---------------------------------------------|
--2-2-2-2-|---------------------------------------------|
--2-2-2-2-|--4--4----4--4----4--4----4--4----4--4-------|
             .  .    .  .    .  .    .  .    .  .

---------------------------------------------|
---------------------------------------------|
--------4-------6-------7-------6-------4h-6-|
---------------------------------------------|
---------------------------------------------|
--4--4----4--4----4--4----4--4----4--4-------|
  .  .    .  .    .  .    .  .    .  .

---------------------------------------------|----|----|----|----|----|
---------------------------------------------|----|----|----|----|----|
--------4-------6-------7-------6-------4h-6-|----|----|----|----|----|
---------------------------------------------|--2-|----|----|----|----|
---------------------------------------------|--2-|----|----|----|----|
--5--5----5--5----5--5----5--5----5--5-------|--2-|----|----|----|----|
  .  .    .  .    .  .    .  .    .  .

-------------------|-------------------|--------------------|
-------------------|-------------------|--------------------|
-------------------|-------------------|--------------------|
--4----------------|--7----------------|--12----------------|
--4----------------|--7----------------|--12----------------|
--4----------------|--7----------------|--12----------------|

--------------------|
--------------------|
--------------------|
--14----------------|
--14----------------|
--14----------------|

---------------------------------------|------------------------------------|
---------------------------------------|------------------------------------|
---------------------------------------|------------------------------------|
--2h-4-x-x-4h-5-x-x-5h-7-x-x-7p-5-5p-4-|--2h-4-x-x-4h-5-x-x-5h-7-x-x-7-7-7--|
--2h-4-x-x-4h-5-x-x-5h-7-x-x-7p-5-5p-4-|--2h-4-x-x-4h-5-x-x-5h-7-x-x-7-7-7--|
--2h-4-x-x-4h-5-x-x-5h-7-x-x-7p-5-5p-4-|--2h-4-x-x-4h-5-x-x-5h-7-x-x-7-7-7--|

---------------------------------------|-------------------------------------|
---------------------------------------|-------------------------------------|
---------------------------------------|-------------------------------------|
--2h-4-x-x-4h-5-x-x-5h-7-x-x-7p-5-5p-4-|--2h-4-x-x-4h-5-x-x-5p-4-x-x-4-4-4-4-|
--2h-4-x-x-4h-5-x-x-5h-7-x-x-7p-5-5p-4-|--2h-4-x-x-4h-5-x-x-5p-4-x-x-4-4-4-4-|
--2h-4-x-x-4h-5-x-x-5h-7-x-x-7p-5-5p-4-|--2h-4-x-x-4h-5-x-x-5p-4-x-x-4-4-4-4-|

--------------------------------------|----------------------------------|
--------------------------------------|----------------------------------|
--------------------------------------|----------------------------------|
--2h-4-x-x-2h-4-x-x-2h-4-x-x-2h-4-x-x-|--4-------4-------4-------4-------|
--2h-4-x-x-2h-4-x-x-2h-4-x-x-2h-4-x-x-|--4-------4-------4-------4-------|
--2h-4-x-x-2h-4-x-x-2h-4-x-x-2h-4-x-x-|--4-------4-------4-------4-------|

-------------------|-------------------|--------------------|
-------------------|-------------------|--------------------|
-------------------|-------------------|--------------------|
--2----------------|--5----------------|--10----------------|
--2----------------|--5----------------|--10----------------|
--2----------------|--5----------------|--10----------------|

--------------------||
--------------------||
--------------------||
--12-------14-------||
--12-------14-------||
--12-------14-------||

-------------------|-------------------|-------------------|
-------------------|-------------------|-------------------|
-------------------|-------------------|-------------------|
--0----------------|--2----------------|--4----------------|
--0----------------|--2----------------|--4----------------|
--0----------------|--2----------------|--4----------------|

-------------------------|--------------------------|--------------------------|
-------------------------|--------------------------|--------------------------|
-------------------------|--------------------------|--------------------------|
--2--------x-x-2--x-x-2--|--0--0--0--0--0--0--0--0--|--2--2--2--2--2--2--2--2--|
--2--------x-x-2--x-x-2--|--0--0--0--0--0--0--0--0--|--2--2--2--2--2--2--2--2--|
--2--------x-x-2--x-x-2--|--0--0--0--0--0--0--0--0--|--2--2--2--2--2--2--2--2--|
                               Pm---------------->        Pm---------------->

--------------------------|-----|-----|-----||
--------------------------|-----|-----|-----||
--------------------------|-----|-----|-----||
--0--0--0--0--0--0--0--0--|--0--|-----|-----||
--0--0--0--0--0--0--0--0--|--0--|-----|-----||
--0--0--0--0--0--0--0--0--|--0--|-----|-----||
    Pm----------------->

--------------------------|---------------------|
--------------------------|---------------------|
--------------------------|---------------------|
--4h6h7-9h11p9-11~--------|-----------11--------|
--------------------------|--9------------------|
--------------------------|---------------------|

----------------------------|----------------------------|
----------------------------|----------------------------|
----------------------------|----------------------------|
--9h11p9-7--x-7--x-11~------|--11--12----11----12--11----|
----------------------------|----------------------------|
----------------------------|----------------------------|

---------------------------|------------------------|
---------------------------|----------14~-----------|
---------------------------|--11--------------------|
--12--11--14S------15------|------------------------|
---------------------------|------------------------|
---------------------------|------------------------|

-----------------------------------|
--12h14p12-10--x-10--x-14----14----|
-----------------------------------|
-----------------------------------|
-----------------------------------|
-----------------------------------|

Tapping:
--------------------------------------------------------------------------|
--14-11-13-11-14-11-13-11-14-11-13-11-14-11-13-11-14-11-13-11-14-11-13-11-|
--------------------------------------------------------------------------|
--------------------------------------------------------------------------|
--------------------------------------------------------------------------|
--------------------------------------------------------------------------|

--------------------------------------------------------------------------|
--16-14-13-16-14-13-16-14-13-16-14-13-18-16-14-18-16-14-18-16-14-18-16-14-|
--------------------------------------------------------------------------|
--------------------------------------------------------------------------|
--------------------------------------------------------------------------|
--------------------------------------------------------------------------|

------------------------------|------------------------------|
------------------------------|------------------------------|
------------------------------|------------------------------|
--7--x-6--x-7-6-7--x-6--x-7-6-|--7--x-6--x-7-6-7--x-6--x-7-6-|
------------------------------|------------------------------|
------------------------------|------------------------------|

------------------------------|----------------------|
------------------------------|----------------------|
--7--x-6--x-7-6-7--x-6--x-7-6-|--7----9----10--------|
------------------------------|----------------------|
------------------------------|----------------------|
------------------------------|----------------------|

------------------------------------|------------------------------------|
--10---x-9--x-10-9-10---x-9--x-10-9-|--10---x-9--x-10-9-10---x-9--x-10-9-|
------------------------------------|------------------------------------|
------------------------------------|------------------------------------|
------------------------------------|------------------------------------|
------------------------------------|------------------------------------|

--10---x-9--x-10-9-10--9-10----|--12--12--13------------||
-------------------------------|----------tp------------||
-------------------------------|------------------------||
-------------------------------|------------------------||
-------------------------------|------------------------||
-------------------------------|------------------------||

---------------------------------------|------------------------------------|
---------------------------------------|------------------------------------|
---------------------------------------|------------------------------------|
--2h-4-x-x-4h-5-x-x-5h-7-x-x-7p-5-5p-4-|--2h-4-x-x-4h-5-x-x-5h-7-x-x-7-7-7--|
--2h-4-x-x-4h-5-x-x-5h-7-x-x-7p-5-5p-4-|--2h-4-x-x-4h-5-x-x-5h-7-x-x-7-7-7--|
--2h-4-x-x-4h-5-x-x-5h-7-x-x-7p-5-5p-4-|--2h-4-x-x-4h-5-x-x-5h-7-x-x-7-7-7--|

---------------------------------------|-------------------------------------|
---------------------------------------|-------------------------------------|
---------------------------------------|-------------------------------------|
--2h-4-x-x-4h-5-x-x-5h-7-x-x-7p-5-5p-4-|--2h-4-x-x-4h-5-x-x-5p-4-x-x-4-4-4-4-|
--2h-4-x-x-4h-5-x-x-5h-7-x-x-7p-5-5p-4-|--2h-4-x-x-4h-5-x-x-5p-4-x-x-4-4-4-4-|
--2h-4-x-x-4h-5-x-x-5h-7-x-x-7p-5-5p-4-|--2h-4-x-x-4h-5-x-x-5p-4-x-x-4-4-4-4-|

--------------------------------------|-----------------------------------|
--------------------------------------|-----------------------------------|
--------------------------------------|-----------------------------------|
--2h-4-x-x-2h-4-x-x-2h-4-x-x-2h-4-x-x-|--4-------4-------4-------4~-------|
--2h-4-x-x-2h-4-x-x-2h-4-x-x-2h-4-x-x-|--4-------4-------4-------4~-------|
--2h-4-x-x-2h-4-x-x-2h-4-x-x-2h-4-x-x-|--4-------4-------4-------4~-------|
comments
We did not receive enough feedback on this tab! Please rate:
print report bad tab
1 2 3 4 5
I want to post or [tab]
guest
You may want to rate the tab now too:
select rating
Please do not post tabs as comments. Select "correction" instead!