Oops, an error
Loading. Please wait.

The Damned Things - Weve Got A Situation Here Tab

13,054 views 12 this week
no commentswrite comment
1 2 3 4 5
excellent!
x 4
Autoscroll
+/-
esc
set tempo
stop
Contributor
Tuning
C G C F A D
Hey! There's an official Ultimate Guitar app which is ideal
for learning songs when you're away from computer. Get the app
WARNING: You are trying to view
                                    content from Ultimate-Guitar.com
                                    in an unauthorized application,
                                    which is prohibited.

                                    Please use an official Ultimate
                                    Guitar Tabs application for iPhone,
                                    iPad or Android to access legitimate
                                    chords, guitar, bass, and drum tabs
                                    from Ultimate-Guitar.com database.

                                    Type "ultimate guitar tabs" in Apple
                                    App Store's or Android Market's
                                    search to find the application.
The Damned Things – We’ve got a Situation Here 

Tuning: Drop C

Ok guys... there are 3 guitars played in this song, I’ll do my best to figure most 
of the licks and harmonies these guitars are played.

You can see my shitty cover at http://www.youtube.com/watch?v=RpGI3nJ8FaE


Intro

Guitar 1

D ---------------------------------------------------------------|
A ---------------------------------------------------------------|
F --------5-5--5-h-7---------------------------------------------| 
C -5-/-7---------------------------------------------------------|
G ---------------------------------------------------------------|
C ---------------------------------------------------------------|

Guitar 2

D ---------------------------------------------------------------|
A ---------------------------------------------------------------|
F ---------------------------------------------------------------| 
C ---------------------5-/-7--5--3-3-----------------------------|
G ---------------------------------------------------------------|
C ---------------------------------------------------------------|

Guitar 3 (Around 0:10)

D ---------------------------------------------------------------|
A ---------------------------------------------------------------|
F ---------------------------------------------------------------| 
C ---------------------8-/-10--8-7-7-----------------------------|
G ---------------------------------------------------------------|
C ---------------------------------------------------------------| 

Verse

Guitar 1
D ------------------------------------------|
A ------------------------------------------|
F --------------------------5-5--5-h-7------| 
C -----p-3-----------5-/-7------------------|
G ------------------------------------------|
C -0-0-----p-5-0----------------------------|

D -------------------------------------------|
A -------------------------------------------|
F -------------------------------------------| 
C -----p-3--------0-3-5-5-3-0-5-3------------|
G ----------------0-3-5-5-3-0-5-3------------|
C -0-0-----p-5-0--0-3-5-5-3-0-5-3------------|


Guitar 2

D ------------------------------------------|
A ------------------------------------------|
F ------------------------------------------| 
C -----p-3-----------5-/-7--5--3-3----------|
G ------------------------------------------|
C -0-0-----p-5-0----------------------------|

D ------------------------------------------|
A ------------------------------------------|
F ------------------------------------------| 
C -----p-3-------0-3-5-5-3-0-5-3------------|
G ---------------0-3-5-5-3-0-5-3------------|
C -0-0-----p-5---0-3-5-5-3-0-5-3------------|


Guitar 3

D ------------------------------------------|
A ------------------------------------------|
F ------------------------------------------| 
C -----p-3-----------8-/-10--8-7-7----------|
G ------------------------------------------|
C -0-0-----p-5-0----------------------------|

D ------------------------------------------|
A ------------------------------------------|
F ------------------------------------------| 
C -----p-3-------0-3-5-5-3-0-5-3------------|
G ---------------0-3-5-5-3-0-5-3------------|
C -0-0-----p-5---0-3-5-5-3-0-5-3------------|



Guitar part to the Chorus

D ---------------------------------------------------|
A ---------------------------------------------------|
F ---------------------------------------------------|
C -5-3-0-5-3-0-5-3-0-5-3-0-5-3-5-6-x-x-x-x-----------|
G -5-3-0-5-3-0-5-3-0-5-3-0-5-3-5-6-x-x-x-x-----------|
C -5-3-0-5-3-0-5-3-0-5-3-0-5-3-5-6-x-x-x-x-----------| 


Chorus 

D --------------------------------------------------------------|
A --------------------------------------------------------------|
F -10-10--------------------------------------------------------|
C -10-10--10-10-10--12-12-12--5-5-5---8-8-8-8-8--10-10-10-10----|
G -8--8---10-10-10--12-12-12--5-5-5---8-8-8-8-8--10-10-10-10----|
C --------10-10-10--12-12-12--5-5-5---8-8-8-8-8--10-10-10-10----|


D --------------------------------------------------------------|
A --------------------------------------------------------------|
F -10-10----------------------12-12-12--------------------------|
C -10-10--10-10-10--12-12-12--12-12-12---8-8-8-8-8--3-3-3-3-----|
G -8--8---10-10-10--12-12-12--10-10-10---8-8-8-8-8--3-3-3-3-----|
C --------10-10-10--12-12-12-------------8-8-8-8-8--3-3-3-3-----|


D ---------------------------------------------------------------|
A ---------------------------------------------------------------|
F -10-10---------------------------------------------------------|
C -10-10--10-10-10--12-12-12--5—-5--5----8-8-8-8-8--10-10-10-10--|
G -8--8---10-10-10--12-12-12--5--5--5----8-8-8-8-8--10-10-10-10--|
C --------10-10-10--12-12-12—-5--5--5----8-8-8-8-8--10-10-10-10--|

D --------------------------------------------------------------|
A --------------------------------------------------------------|
F -10-10--------------------------------------------------------|
C -10-10--10-10-10--12-12-12--10-10-10---8-8-8-8-8--3-3-3-3-----|
G -8--8---10-10-10--12-12-12--10-10-10---8-8-8-8-8—-3-3-3-3-----|
C --------10-10-10--12-12-12--10-10-10---8-8-8-8-8--3-3-3-3-----|



Verse
Chorus


Guitar solo #1
Rhythm 
D --------------------------------------------------|
A --------------------------------------------------|
F --------------------------------------------------|
C -5-3-0-5-3-0-5-3-0-5-3-0-5-3-5-6-x-x-x-x----------|
G -5-3-0-5-3-0-5-3-0-5-3-0-5-3-5-6-x-x-x-x----------|
C -5-3-0-5-3-0-5-3-0-5-3-0-5-3-5-6-x-x-x-x----------| 

D --------------------------------------------------|
A --------------------------------------------------|
F --------------------------------------------------|
C -5-3-0-5-3-0-5-3-0-5-3-0-5-3-5-/------------------|
G -5-3-0-5-3-0-5-3-0-5-3-0-5-3-5-/------------------|
C -5-3-0-5-3-0-5-3-0-5-3-0-5-3-5-/-12---------------| 

D ---------------------------------------------------|
A ---------------------------------------------------|
F ---------------------------------------------------|
C -5-3-0-5-3-0-5-3-0-5-3-0-5-3-5-6-x-x-x-x-----------|
G -5-3-0-5-3-0-5-3-0-5-3-0-5-3-5-6-x-x-x-x-----------|
C -5-3-0-5-3-0-5-3-0-5-3-0-5-3-5-6-x-x-x-x-----------| 


D --------------------------------------------------|
A --------------------------------------------------|
F --------------------------------------------------|
C -5-3-0-5-3-0-5-3-0-5-3-0-5-3-5-6-5-3-0-0----------|
G -5-3-0-5-3-0-5-3-0-5-3-0-5-3-5-6-5-3-0-0----------|
C -5-3-0-5-3-0-5-3-0-5-3-0-5-3-5-6-5-3-0-0----------| 


Some lick to the ‘Breakdown’
D ---------------------------------------------------------|
A ---------------------------------------------------------|
F -7-p-5---5-----------------------------------------------|
C -------7---7-5-7-p-5----5--------------------------------|
G ---------------------10---10—5-10-5-3-h-5----------------|
C ---------------------------------------------------------|


‘Breakdown’
Guitar 1
D ---------------------------------------------------------|
A ---------------------------------------------------------|
F ---------------------------------------------------------|
C -------------------------8-8-8--5-5----------------------|
G -----------3---------5---8-8-8--5-5----------------------|
C -0-0-3-h-5---0-3-h-5-----8-8-8--5-5----------------------| x3

D ---------------------------------------------------------|
A ---------------------------------------------------------|
F -7-p-5---5-----------------------------------------------|
C -------7---7-5-7-p-5----5--------------------------------|
G ---------------------10---10—5---------------------------|
C ---------------------------------------------------------|

Guitar 2
D ----------------------------------------------------------|
A ----------------------------------------------------------|
F ----------------------------------------------------------|
C -----------2---------3----8-8-8--5-5----------------------|
G --------------------------8-8-8--5-5----------------------|
C -0-0-3-h-5---0-3-h-5------8-8-8--5-5----------------------| x3

D ---------------------------------------|
A -6-p-5--5------------------------------|
F ------7---7-5-7-p-5---5----------------|
C --------------------7—-7--5------------|
G ---------------------------------------|
C ---------------------------------------|

Guitar 3 

D ---------------------------------------------------------|
A ---------------------------------------------------------|
F ---------------------------------------------------------|
C -------------------------8-8-8--5-5----------------------|
G -----------3---------5---8-8-8--5-5----------------------|
C -0-0-3-h-5---0-3-h-5-----8-8-8--5-5----------------------| x3


D -5-p-3---3-----------------------------------------------|
A -------6--6-5-6-5-3-5-3----------------------------------|
F ------------------------5--------------------------------|
C ---------------------------------------------------------|
G ---------------------------------------------------------|
C ---------------------------------------------------------|

Ending licks
Guitar 1
D ---------------------------------------------------------|
A ---------------------------------------------------------|
F -7-p-5---5-----------------------------------------------|
C -------7---7-5-7-p-5----5--------------------------------|
G ---------------------10---10—5-10-7-3-h-5----------------|
C ---------------------------------------------------------|

Guitar 2

D ---------------------------------------------------------|
A -6-p-5--5------------------------------------------------|
F ------7---7-5-7-p-5---5----------------------------------|
C --------------------7—-7--5--5---------------------------|
G ----------------------------8--8-7-h-8-------------------|
C ---------------------------------------------------------|


Build-up to the chorus
Guitar 1
D ---------------------------------------------------------------|
A ---------------------------------------------------------------|
F ---------------------------------------------------------------|
C ---------------------------------------------------------------|
G ---------------------------------------------------------------|
C -0-0-p-5-p-3--------------------0-p-5-p-3-3-h-5-6-5-3-5-3-0----|

Guitar 2

D ---------------------------------------------------------------|
A ---------------------------------------------------------------|
F ---------------------5-5--5-h-7--------------------------------| 
C ---------------5-/-7-------------------------------------------|
G ---------------------------------------------------------------|
C ---------------------------------------------------------------|


Guitar 1
D ---------------------------------------------------------------|
A ---------------------------------------------------------------|
F ---------------------------------------------------------------|
C ---------------------------------------------------------------|
G ---------------------------------------------------------------|
C -0-0-p-5-p-3--------------------0-p-5-p-3-3-h-5-6-5-3-5-3------|


Guitar 2

D ---------------------------------------------------------------|
A ---------------------------------------------------------------|
F ---------------------------------------------------------------| 
C ---------------5-/-7--5--3-3-----------------------------------|
G ---------------------------------------------------------------|
C ---------------------------------------------------------------|

Chorus

D --------------------------------------------------------------|
A --------------------------------------------------------------|
F -10-10--------------------------------------------------------|
C -10-10--10-10-10--12-12-12--5-5-5---8-8-8-8-8--10-10-10-10----|
G -8--8---10-10-10--12-12-12--5-5-5---8-8-8-8-8--10-10-10-10----|
C --------10-10-10--12-12-12--5-5-5---8-8-8-8-8--10-10-10-10----|

D --------------------------------------------------------------|
A --------------------------------------------------------------|
F -10-10----------------------12-12-12--------------------------|
C -10-10--10-10-10--12-12-12--12-12-12---8-8-8-8-8--3-3-3-3-----|
G -8--8---10-10-10--12-12-12--10-10-10---8-8-8-8-8--3-3-3-3-----|
C --------10-10-10--12-12-12-------------8-8-8-8-8--3-3-3-3-----|


D ---------------------------------------------------------------|
A ---------------------------------------------------------------|
F -10-10---------------------------------------------------------|
C -10-10--10-10-10--12-12-12--5—-5--5----8-8-8-8-8--10-10-10-10--|
G -8--8---10-10-10--12-12-12--5--5--5----8-8-8-8-8--10-10-10-10--|
C --------10-10-10--12-12-12—-5--5--5----8-8-8-8-8--10-10-10-10--|

D --------------------------------------------------------------|
A --------------------------------------------------------------|
F -10-10--------------------------------------------------------|
C -10-10--10-10-10--12-12-12--10-10-10---8-8-8-8-8--3-3-3-3-----|
G -8--8---10-10-10--12-12-12--10-10-10---8-8-8-8-8—-3-3-3-3-----|
C --------10-10-10--12-12-12--10-10-10---8-8-8-8-8--3-3-3-3-----|

Chorus Harmony 
D -----------------------------------------------------------------|
A -----------------------------------------------------------------|
F -10--9---7-7-7--5--7--9---7-7-7----------------------------------|
C -12--10--9-9-9--7--9--10--9-9-9--8-8-8-8-10-10-10----------------|
G ---------------------------------8-8-8-8-10-10-10----------------|
C ---------------------------------8-8-8-8-10-10-10----------------|

D ---------------------------------------------------------------|
A ---------------------------------------------------------------|
F -10--9---7-7-7-5--7--5--2-2-2--3-2---2-------------------------|
C -12--10--9-9-9-7--9--7--3-3-3------5---5--3-5-3--2-p-3---------|
G -----------------------------------------------------3---------|
C ---------------------------------------------------------------


Guitar Solo #2
Rhythm
D --------------------------------------------------|
A --------------------------------------------------|
F --------------------------------------------------|
C -5-3-0-5-3-0-5-3-0-5-3-0-5-3-5-6-x-x-x------------|
G -5-3-0-5-3-0-5-3-0-5-3-0-5-3-5-6-x-x-x------------|
C -5-3-0-5-3-0-5-3-0-5-3-0-5-3-5-6-x-x-x------------| 

D --------------------------------------------------|
A --------------------------------------------------|
F --------------------------------------------------|
C -5-3-0-5-3-0-5-3-0-5-3-0-5-3-5-/------------------|
G -5-3-0-5-3-0-5-3-0-5-3-0-5-3-5-/------------------|
C -5-3-0-5-3-0-5-3-0-5-3-0-5-3-5-/-12---------------| 

D --------------------------------------------------|
A --------------------------------------------------|
F --------------------------------------------------|
C -5-3-0-5-3-0-5-3-0-5-3-0-5-3-5-6-x-x-x------------|
G -5-3-0-5-3-0-5-3-0-5-3-0-5-3-5-6-x-x-x------------|
C -5-3-0-5-3-0-5-3-0-5-3-0-5-3-5-6-x-x-x------------| 

D --------------------------------------------------|
A --------------------------------------------------|
F --------------------------------------------------|
C -5-3-0-5-3-0-5-3-0-5-3-0-5-3-5-6-5-3-0-0----------|
G -5-3-0-5-3-0-5-3-0-5-3-0-5-3-5-6-5-3-0-0----------|
C -5-3-0-5-3-0-5-3-0-5-3-0-5-3-5-6-5-3-0-0----------| 

http://www.myspace.com/thedamnedthings
comments
print report bad tab
I want to post or [tab]
guest
You may want to rate the tab now too:
select rating
Please do not post tabs as comments. Select "correction" instead!