Oops, an error
Loading. Please wait.

The Punishment - Angels Of Death Tab

42 views 1 this week
no commentswrite comment
1 2 3 4 5
please rate
add to favorites launch autoscroll
font size
0
reset
Autoscroll
+/-
esc
set tempo
stop
Contributor
Difficulty
Tuning
advanced
C G C F A D
WARNING: You are trying to view
                                    content from Ultimate-Guitar.com
                                    in an unauthorized application,
                                    which is prohibited.

                                    Please use an official Ultimate
                                    Guitar Tabs application for iPhone,
                                    iPad or Android to access legitimate
                                    chords, guitar, bass, and drum tabs
                                    from Ultimate-Guitar.com database.

                                    Type "ultimate guitar tabs" in Apple
                                    App Store's or Android Market's
                                    search to find the application.
b=bend
p=pull off
~=vibrato
*=harmonic pitch
.=palm mute
\=slide down
/=slide up

INTRO

D|-----------------------------------------------------------|
A|-----------------------------------------------------------|
F|-----------------------------------------------------------|
G|-----------------------------------------------------------|
C|-----------------------------------------------------------|
G|--0-0-0-0--------0-0-0-0-------0-0-0-0-------5-5-5-0-------|
C|--0-0-0-0-1b-2b--0-0-0-0-1b-2b-0-0-0-0-1b-2b-5-5-5-0-1b-2b-|

D|-----------------------------------------------------------|
A|-----------------------------------------------------------|
F|-----------------------------------------------------------|
G|-----------------------------------------------------------|
C|-----------------------------------------------------------|
G|--0-0-0-0--------0-0-0-0-------0-0-0-0-------5-5-5-0-------|
C|--0-0-0-0-1b-2b--0-0-0-0-1b-2b-0-0-0-0-1b-2b-5-5-5-0-1b-2b-|

D|-----------------------------------------------------------|
A|-----------------------------------------------------------|
F|-----------------------------------------------------------|
G|-----------------------------------------------------------|
C|-----------------------------------------------------------|
G|--0-0-0-0--------0-0-0-0-------0-0-0-0-------5-5-5-0-------|
C|--0-0-0-0-1b-2b--0-0-0-0-1b-2b-0-0-0-0-1b-2b-5-5-5-0-1b-2b-|

D|-----------------------------------------------------------|
A|-----------------------------------------------------------|
F|-----------------------------------------------------------|
G|-----------------------------------------------------------|
C|-----------------------------------------------------------|
G|--0-0-0-0--------0-0-0-0-------0-0-0-0-------5-5-5-0-------|
C|--0-0-0-0-1b-2b--0-0-0-0-1b-2b-0-0-0-0-1b-2b-5-5-5-0-1b-2b-|

PRE-VERSE

D|---------------------------------------------------------------------------|
A|---------------------------------------------------------------------------|
F|---------------------------------------------------------------------------|
C|--------------------------------------------------1-----------------1----0-|
G|--5-----0-----3-----0-----5-----0-----3-----0-----1-----------------1----0-|
C|--5-----0-----3-----0-----5-----0-----3-----0-----1--------0--0--0--1----0-|
                                                             .......
VERSE

D|--------------------------------------------------------------------------|
A|--------------------------------------------------------------------------|
F|--------------------------------------------------------------------------|
C|--------------------------------------------------------------------------|
G|--------------------------------------------------------------------------|
C|--0-0-0-0-0-0-0-0-2-2-2-2-2-2-2-3-3-3-3-3-3-4-4-4-4-5-5-5-5-6-6-6-6-0-0-0-|
   ........................................................................

D|------------------------------------------------|
A|------------------------------------------------|
F|------------------------------------------------|
C|------------------------------------------------|
G|--0-0-0-0-0-0-0-0-0-0-0-0-0-0-1\6/--------------|
C|--0-0-0-0-0-0-0-0-0-0-0-0-0-0-1\6/1*------------|

CHOURS

D|--------------------------------------------------------------------------|
A|--------------------------------------------------------------------------|
F|--------------------------------------------------------------------------|
C|--------------------------------------------------------------------------|
G|--3-3-3-3-3-3-3-3-3-3-3-2-2-2-2-2-2-2-2-2-2-2-1-1-1-1-1-1-1-1-1-1-0-0-0-0-|
C|--3-3-3-3-3-3-3-3-3-3-3-2-2-2-2-2-2-2-2-2-2-2-1-1-1-1-1-1-1-1-1-1-0-0-0-0-|

D|--------------------------------------------------------------------------|
A|--------------------------------------------------------------------------|
F|--------------------------------------------------------------------------|
C|--------------------------------------------------------------------------|
G|--5--6--7--5--6--7--5--6--7--5--6--7--------------------------------------|
C|--------------------------------------5--6--7--5--6--7--5--6--7--5--6--7--|
    ......................................................................

Solo

D|--------------------------------------------------------------------------|
A|-------------------------------------------11------------------10*--------|
F|-7-9-10-7-9-10-/14*---7-9-10-7-/15*--14*-----12-------12----9-9---9-10-9*-|
C|-----------------------------------------------12--------12---------------|
G|-------------------------------------------------13-10-13-----------------|
C|--------------------------------------------------------------------------|

D|------------------------------------------10------------------9----------|
A|6-8-10-6-8-10-/15*---6-8-10-6-/20*--18*-----11------------10-8-6-8-10-8*-|
F|----------------------------------------------12--------12---------------|
C|------------------------------------------------12----12-----------------|
G|---------------------------------------------------13--------------------|
C|-------------------------------------------------------------------------|

D|17161513151617161513--------------13151617---1210121310121312101310-------|
A|--------------------15----------15----------------------------------------|
F|----------------------14------14------------------------------------------|
C|------------------------15--15--------------------------------------------|
G|--------------------------17----------------------------------------------|
C|--------------------------------------------------------------------------|

    TTTTTTTTTTTTTTTTTTTTTTTTTTTTTTTTTTTTTTTTTTTTTTTTTTTTTTTTTTTTTTTTTTTTTT
D|--12--13--12--14--12--13--12--14--12--15--12--15--12--13--14--15--16--17--|
A|--------------------------------------------------------------------------|
F|--------------------------------------------------------------------------|
C|--------------------------------------------------------------------------|
G|--------------------------------------------------------------------------|
C|--------------------------------------------------------------------------|

Wah Pedal Going Up And Down Fast and Mental For The Next 5 Bars

D|-----------------------------------------|
A|-----------------------------------------|
F|-14p12-----------------------------------|
C|-------14--14p12-------------------------|
G|-----------------14--14p12\10------------|
C|------------------------------12-~-(12)\-|

D|-------12-12-12-------12-12-12-------12-12-12-------12-12-12-|
A|-15b17----------15b17----------15b17----------15b17----------|
F|-------------------------------------------------------------|
C|-------------------------------------------------------------|
G|-------------------------------------------------------------|
C|-------------------------------------------------------------|

D|-------12-12-12h15p12-12h15p12-12h15p12-12-15-12-12-14-14-|
A|-15b17----------------------------------------------------|
F|----------------------------------------------------------|
C|----------------------------------------------------------|
G|----------------------------------------------------------|
C|----------------------------------------------------------|

D|-17p14----17p14----17p14-19p15----19p15----19p15-|
A|-------15-------15-------------17-------17-------|
F|-------------------------------------------------|
C|-------------------------------------------------|
G|-------------------------------------------------|
C|-------------------------------------------------|

D|-21p17----21p17----21p17----22b24-(22)\-----------------------|
A|-------17-------17-------17-------------9b10--(9)---9b10---9--|
F|----------------------------------------9b11--(9)---9b11---9--|
C|--------------------------------------------------------------|
G|--------------------------------------------------------------|
C|--------------------------------------------------------------|

D|--------------------------------------------------------|
A|-15p12----12-17p=12-----12-15p=12-----12-17p=12------12-|
F|-------16-----------16------------16-------------16-----|
C|--------------------------------------------------------|
G|--------------------------------------------------------|
C|--------------------------------------------------------|

D|--------------------------------------------------------|
A|-15p=12-----12-17p=12------12-15p=12-----12-17p12----12-|
F|--------16-------------16-------------16----------16----|
C|--------------------------------------------------------|
G|--------------------------------------------------------|
C|--------------------------------------------------------|

D|-------------------------------------------|
A|-17p15p12----12-17p15p12----12-17p15p12----|
F|----------15-------------15-------------15-|
C|-------------------------------------------|
G|-------------------------------------------|
C|-------------------------------------------|

D|------------------------------------------|
A|-12-17p15p12----12-17-15p12----12-12------|
F|-------------15-------------15-------12---|
C|------------------------------------------|
G|------------------------------------------|
C|------------------------------------------|

D|--------------------------------------------------------|
A|-17p15p12----17p=15p12-----17p=15p12-----17p=15p=12-----|
F|----------12------------12------------12-------------12-|
C|--------------------------------------------------------|
G|--------------------------------------------------------|
C|--------------------------------------------------------|

D|--------------------------------------------------------|
A|-18p=16p13-----18p=16p=13-----18p=16p=13----18p16p13----|
F|------------13-------------13------------13----------13-|
C|--------------------------------------------------------|
G|--------------------------------------------------------|
C|--------------------------------------------------------|

D|-------------------------------------------------|
A|-19p17p14----19p17p14----19p17p14----19p17p14----|
F|----------14----------14----------14----------14-|
C|-------------------------------------------------|
G|-------------------------------------------------|
C|-------------------------------------------------|

D|-------------------------------------------------|
A|-20p18p15----20p18p15----20p18p15----20p18p15----|
F|----------15----------15----------15----------15-|
C|-------------------------------------------------|
G|-------------------------------------------------|
C|-------------------------------------------------|

OUTRO

D|----
A|----
F|----
C|--0-
G|--0-
C|--0-
comments
We did not receive enough feedback on this tab! Please rate:
1 2 3 4 5
I want to post or [tab]
guest
You may want to rate the tab now too:
select rating
Please do not post tabs as comments. Select "correction" instead!