Oops, an error
Loading. Please wait.

The Reddmen - Sofiya Tab

79 views 1 this week
no commentswrite comment
1 2 3 4 5
please rate
Autoscroll
+/-
esc
set tempo
stop
Contributor
Difficulty
intermediate
Hey! There's an official Ultimate Guitar app which is ideal
for learning songs when you're away from computer. Get the app
WARNING: You are trying to view
                                    content from Ultimate-Guitar.com
                                    in an unauthorized application,
                                    which is prohibited.

                                    Please use an official Ultimate
                                    Guitar Tabs application for iPhone,
                                    iPad or Android to access legitimate
                                    chords, guitar, bass, and drum tabs
                                    from Ultimate-Guitar.com database.

                                    Type "ultimate guitar tabs" in Apple
                                    App Store's or Android Market's
                                    search to find the application.
	figure 1

guitar 1
e |----------------------------------|
b |------2-------2-------2---3---2---|
g |----2---2---2---2---2---2---------|  <<repeat 6 times
d |----------2-----------------------|
a |--0---------------2---------2---2-|
e |----------------------------------|
guitar 2
e |----------------------------------|
b |----2-2-2---2-2-2---2-2-2-3-3-2-2-|
g |----2-2-2---2-2-2---2-2-2-2-2-2-2-|   <<come in on 3rd measure
d |----------2-----------------------|
a |--0---------------2---------------|
e |----------------------------------|

----------------------------------------------------------------

	figure 2
(both guitars)
e |-----------------------------------|
b |--9-9-9-9-9-9-9-9--9-9-9-9-9-9-9-9-|
g |--9-9-9-9-9-9-9-9--9-9-9-9-9-9-9-9-|
d |--7-7-7-7-7-7-7-7--6-6-6-6-6-6-6-6-|      <<repeat 2 times
a |-----------------------------------|
e |-----------------------------------|

e |----------------------------------|
b |--5-5-5-5-5-5-5-5-5-5-5-5-5-5-5-5-|
g |--7-7-7-7-7-7-7-7-7-7-7-7-7-7-7-7-|
d |--6-6-6-6-6-6-6-6-6-6-6-6-6-6-6-6-|
a |----------------------------------|
e |----------------------------------|

----------------------------------------------------------------
play figure 1 (guitar 1) six more times, then guitar 2 plays only two measures at the 
then cuts out as guitar 1 keeps going. Guitar 2 comes back in on 5th measure.


play figure 2 two more times

----------------------------------------------------------------
	figure 3
		section a
(both guitars)
e|--------------------------------------|
b|--------------------------------------|
g|--------------------------------------|    <<repeat 3 times,
d|--4-4-X-X--7-7-7-X-X--9-9-9-9-9-9-9-9-|      then play b once
a|--4-4-X-X--7-7-7-X-X--9-9-9-9-9-9-9-7-|
e|--2-2-X-X--5-5-5-X-X--7-7-7-7-7-7-7-5-|

		section b
e|--------------------------------------|
b|--------------------------------------|
g|--------------------------------------|
d|--4-4-X-X--7-7-7-X-X--9------------9--|
a|--4-4-X-X--7-7-7-X-X--9------------9--|
e|--2-2-X-X--5-5-5-X-X--7------------7--|
                                     ^--|play this only when instructed below!
----------------------------------------|
begin figure 1 (guitar 1) twice at the same time as you hit the second to last power 
of figure 3 (section b; let ring; play only in this verse), then guitar 2 comes in on 3rd measure.


play figure 2, cut off, then break into figure 3

END


http://www.tigersvscrime.com/
comments
We did not receive enough feedback on this tab! Please rate:
print report bad tab
1 2 3 4 5
I want to post or [tab]
guest
You may want to rate the tab now too:
select rating
Please do not post tabs as comments. Select "correction" instead!