Oops, an error
Loading. Please wait.

The Registration - The Sapphire Bullets Of Pure Love Bass Tab

ver1
ver1

Whole song

Interactive

More versions @911Tabs.com
103 views 1 this week
no commentswrite comment
1 2 3 4 5
please rate
add to favorites launch autoscroll
font size
0
reset
Autoscroll
+/-
esc
set tempo
stop
Contributor
Difficulty
Tuning
intermediate
D A D G B E
WARNING: You are trying to view
                                    content from Ultimate-Guitar.com
                                    in an unauthorized application,
                                    which is prohibited.

                                    Please use an official Ultimate
                                    Guitar Tabs application for iPhone,
                                    iPad or Android to access legitimate
                                    chords, guitar, bass, and drum tabs
                                    from Ultimate-Guitar.com database.

                                    Type "ultimate guitar tabs" in Apple
                                    App Store's or Android Market's
                                    search to find the application.
+                      The Sapphire Bullets of Pure Love                         


                                                                The Registration
Jason



     W                   W                   W                 
G||-------------------|-------------------|-------------------|
D||-------------------|-------------------|-------------------|
A||-------------------|-------------------|-------------------|
D||-------------------|-------------------|-------------------|
A||-------------------|-------------------|-------------------|


  W                   Q      E   E   Q     Q      
-------------------|-----------------------------|
-------------------|-------/12--10---L-----------|
-------------------|--5-------------------12\----|
-------------------|-----------------------------|
-------------------|-----------------------------|


  Q    E  E  E    E   S  S  E      Q      E   E   Q    Q     
--------------------------------|------------10---L---------|
-------5-------------10---------|-------/12------------3----|
----------3--L--/10-----10p-8\--|--5------------------------|
--5-----------------------------|---------------------------|
--------------------------------|---------------------------|


    Q      E  E  H           Q      E   E   Q     Q      
--------------------------|-----------------------------|
--3g5---------------------|-------/12--10---L-----------|
---------3g5--3--L--------|--5-------------------12\----|
--------------------------|-----------------------------|
--------------------------|-----------------------------|


                                                          |--3-|       
  Q    E  E  E    E   S  S  E      Q      E   E   E    E  S  S S  E    
--------------------------------|------------14---L\--10--9-10-9------|
-------5-------------10---------|-------/12----------------------12\--|
----------3--L--/10-----10p-8\--|--5----------------------------------|
--5-----------------------------|-------------------------------------|
--------------------------------|-------------------------------------|


  E   E  E  E  Q    E  E     W                   H.           E   E   
--------------------------|-------------------|----------------------|
--5p--0-------------------|-------------------|----------------------|
------------3--L----3--0--|-------------------|---------------0h--3--|
---------5----------------|--3----------------|--L-------------------|
--------------------------|-------------------|----------------------|


    Q      E   E   Q     Q        Q      E   E   Q     E  E   
-------------------------------|-----------------------------|
---------/12--10---L-----------|-------/12--10---L\----------|
--3g5-------------------12\----|--5--------------------3--0--|
-------------------------------|-----------------------------|
-------------------------------|-----------------------------|


  W                   Q.     E  H           W                 
-------------------|---------------------|-------------------|
-------------------|---------------------|-------------------|
-------------------|---------------------|-------------------|
--3----------------|--3------2--3--------|--0----------------|
-------------------|---------------------|-------------------|


  H.           S S S S      E  S S  S S E  S S S S  S S S  S  
-----------------------||------------------------------------|
-----------------------||*-----------------------------------|
--1------------1-1-1-1-||--------3h-5------------3h-5-3------|
-----------------------||*--0--0------0-3--L-3-3--------3p-0-|
-----------------------||------------------------------------|


  E  S  S S  S  E  S S S  S S S S  S    E  S S  S S E  S S S S  S S S  S  
-------------------------------------|-----------------------------------|
-----5h-7--------------3h-5-3--------|-----------------------------------|
----------5h-7-\3--L-3--------3-3p-0-|-------3h-5------------3h-5-3------|
--5----------------------------------|--0--0------0-3--L-3-3--------3p-0-|
-------------------------------------|-----------------------------------|


  E  S  S S  S  E  S S S S  S S S S    S E  S S E  S S E  S S E  S  
------------------------------------|------------------------------|
-----5h-7----------------3h-5-------|------------------------------|
----------5h-7-\3--L-3-3------3-----|------------------------------|
--5-----------------------------3---|------------------------------|
----------------------------------0-|--1-1--0-1-1--0-1-1--0-1-1--0-|


  S E  S S E  S S S E    S   S  E        S E  S E  E  S E  S   E  E   
-------------------------------------||------------------------------|
------------------------------------*||------------------------------|
-------------------------------------||------------------------------|
------------------------10h-12-10\--*||--5-5--0-3--5--3-3--0-3g5--3--|
--1-1--0-1-1--0-3-3-3/---------------||------------------------------|


  Q    H.              H.            Q        E  S S S  S S S S S E  S  S   E   
--------------------|----------------------|-----------------------------------|
--------------------|----------------------|----------------3-L-2--------------|
--------------------|----------------------|-----5---3h-5---------3--3h-5------|
--0-----------------|---------------12\----|--0----0------0---------------3g5--|
--------------------|----------------------|-----------------------------------|


  E  S S S  S S S S S E  S  S E     E  S S S  S S S S S E  S  S E   
---------------------------------|---------------------------------|
----------------3-L-2------------|----------------3-L-2------------|
-----5---3h-5---------3--3h-5----|-----5---3h-5---------3--3h-5-0--|
--3----3------3---------------3--|--5----5------5------------------|
---------------------------------|---------------------------------|


  E  S S S  S S S S S S S S S   E      E  S S S  S S S S S E  S  S   E   
------------------------------------|-----------------------------------|
----------------5---3---2-----------|----------------3-L-2--------------|
--1--5-1-3h-5-1---1---1---1---------|-----5---3h-5---------3--3h-5------|
----------------------------3-3g5\--|--0----0------0---------------3g5--|
------------------------------------|-----------------------------------|


  E  S S S  S S S S S E  S  S E     E  S S S  S S S S S E  S  S E   
---------------------------------|---------------------------------|
----------------3-L-2------------|----------------3-L-2------------|
-----5---3h-5---------3--3h-5----|-----5---3h-5---------3--3h-5-0--|
--3----3------3---------------3--|--5----5------5------------------|
---------------------------------|---------------------------------|


  E  S S S  S S S S S S S S S   E      E  S S S  S S S S S E  S  S   E   
------------------------------------|-----------------------------------|
----------------5---3---2-----------|----------------3-L-2--------------|
--1--5-1-3h-5-1---1---1---1---------|-----5---3h-5---------3--3h-5------|
----------------------------3-3g5\--|--0----0------0---------------3g5--|
------------------------------------|-----------------------------------|


  E  S S S  S S S S S E  S  S E     E  S S S  S S S S S E  S  S E   
---------------------------------|---------------------------------|
----------------3-L-2------------|----------------3-L-2------------|
-----5---3h-5---------3--3h-5----|-----5---3h-5---------3--3h-5-0--|
--3----3------3---------------3--|--5----5------5------------------|
---------------------------------|---------------------------------|


  E  S S S  S S S S S S S S S   E      E  S S S  S S S S S E  S  S   E   
------------------------------------|-----------------------------------|
----------------5---3---2-----------|----------------3-L-2--------------|
--1--5-1-3h-5-1---1---1---1---------|-----5---3h-5---------3--3h-5------|
----------------------------3-3g5\--|--0----0------0---------------3g5--|
------------------------------------|-----------------------------------|


  E  S S S  S S S S S E  S  S E     E  S S S  S S S S S E  S  S E   
---------------------------------|---------------------------------|
----------------3-L-2------------|----------------3-L-2------------|
-----5---3h-5---------3--3h-5----|-----5---3h-5---------3--3h-5-0--|
--3----3------3---------------3--|--5----5------5------------------|
---------------------------------|---------------------------------|


  E  S S S  S S S S S S S S S   E       H.           S S S S  
------------------------------------|------------------------|
----------------5---3---2-----------|------------------------|
--1--5-1-3h-5-1---1---1---1---------|------------------------|
----------------------------3-3g5\--|--/8------------8-8-8-8-|
------------------------------------|------------------------|


    E  S S  S S E  S S S S  S S S  S    E  S  S S  S  E  S S S  S S S S  S  
|------------------------------------|-------------------------------------|
|*-----------------------------------|-----5h-7--------------3h-5-3--------|
|--------3h-5------------3h-5-3------|----------5h-7-\3--L-3--------3-3p-0-|
|*--0--0------0-3--L-3-3--------3p-0-|--5----------------------------------|
|------------------------------------|-------------------------------------|


  E  S S  S S E  S S S S  S S S  S    E  S  S S  S  E  S S S S  S S S S  
-----------------------------------|------------------------------------|
-----------------------------------|-----5h-7----------------3h-5-------|
-------3h-5------------3h-5-3------|----------5h-7-\3--L-3-3------3-----|
--0--0------0-3--L-3-3--------3p-0-|--5-----------------------------3---|
-----------------------------------|----------------------------------0-|


  S E  S S E  S S E  S S E  S    S E  S S E  S S S E    S   S  E      
------------------------------|-------------------------------------||
------------------------------|------------------------------------*||
------------------------------|-------------------------------------||
------------------------------|------------------------10h-12-10\--*||
--1-1--0-1-1--0-1-1--0-1-1--0-|--1-1--0-1-1--0-3-3-3/---------------||


                                                     |---3---|   
  S E  S E  E  S E  S   E  E     S E  S E  E  S E  S E    E  E   
------------------------------|---------------------------------|
------------------------------|---------------------------------|
------------------------------|-------------------------/10--8--|
--5-5--0-3--5--3-3--0-3g5--3--|--5-5--0-3--5--3-3--0-3----------|
------------------------------|---------------------------------|


    H.              H.              H.              H.            
-----------------|---------------|---------------|---------------|
-----------------|---------------|---------------|---------------|
--7g5------------|--L------------|---------------|---------------|
--0g0------------|--L------------|---------------|---------------|
-----------------|---------------|---------------|---------------|


                                        NH      NH        
  W                   E  E  E      E    E  E    E  E  E   
-------------------|-----------|------<>7--L-------------|
-------------------|-----------|--------------<>7--L-----|
-------------------|--0--0--0--|--/5------------------7--|
-------------------|-----------|-------------------------|
-------------------|-----------|-------------------------|


       NH      NH               NH      NH                                  
  E    E  E    E  E  E     E    E  E    E  E  E     Q.     E   Q     Q      
-----<>5--L-------------|-----<>7--L-------------|-------------------------|
-------------<>5--L-----|-------------<>7--L-----|-------------------------|
--8------------------3--|--5---------------------|-------------------------|
------------------------|---------------------7--|--8------8--10----10\----|
------------------------|------------------------|-------------------------|


  E  Q         E  S S S S  S S E  E  S  S    E  S S S S S S    E  E  S  S   
----------||------------------------------|--------------------------------|
----------||*-----------------------------|-------8-L-------8g10--8--------|
----------||--------5-L--------5--5-------|-----------8--------------7h-8\-|
----------||*--0--7-----7p-0-0-------7p-0-|--8--8-------8-8----------------|
--0-------||------------------------------|--------------------------------|


  E  S S S S  S S E  E  S  S    E  S S S S E     E   S  S  S  S S  S  
-----------------------------|---------------------------------------|
-----------------------------|-------8-L------8g10-------------------|
--5----5-L--------5--5-------|-----8----------------10---------------|
-----0-----7p-0-0-------7p-0-|--8----------------------10--L\-0-5h-7-|
-----------------------------|---------------------------------------|


  E  E  E   3x  E  E  E  E  E  E  E  E     E  E  E  E  Q      Q      
------------||--------------------------|---------------------------|
-----------*||--------------------------|---------------------------|
------------||--------------------------|---------------------------|
-----------*||--------------------------|-------------------/10\----|
--0--0--0---||--0--0--0--0--0--0--0--0--|--1--1--1--1--3------------|


  S E  S S E  S S E  S S E  S    S E  S S E  S S E  S S E  S  
------------------------------|------------------------------|
------------------------------|------------------------------|
------------------------------|------------------------------|
------------------------------|------------------------------|
--1-1--0-1-1--0-1-1--0-1-1--0-|--3-3--1-3-3--1-3-3--1-3-3--0-|


  S E  S S E  S S E  S S E  S    S E  S S E  S S E  S S E  S  
------------------------------|------------------------------|
------------------------------|------------------------------|
------------------------------|------------------------------|
------------------------------|------------------------------|
--1-1--0-1-1--0-1-1--0-1-1--0-|--3-3--1-3-3--1-3-3--1-3-3--0-|


  S E  S S E  S S E  S S E  S    S E  S S E  S S E  S S E  S  
------------------------------|------------------------------|
------------------------------|------------------------------|
------------------------------|------------------------------|
------------------------------|------------------------------|
--1-1--0-1-1--0-1-1--0-1-1--0-|--3-3--1-3-3--1-3-3--1-3-3--0-|


                                                   |----3----|     
  S E  S S E  S S E  S S E  S      S S S S S S S S Q    Q    Q     
------------------------------|-----------------------------------|
------------------------------|----------2------------------------|
------------------------------|--1g3-1-3---3-0--------------------|
------------------------------|----------------2-3-0----0----0----|
--1-1--0-1-1--0-1-1--0-1-1--0-|-----------------------------------|


  S E  S S E  S S E  S S E  S    S E  S S E  S S E  S S E  S  
------------------------------|------------------------------|
------------------------------|------------------------------|
------------------------------|------------------------------|
------------------------------|------------------------------|
--1-1--0-1-1--0-1-1--0-1-1--0-|--3-3--1-3-3--1-3-3--1-3-3--0-|


  S E  S S E  S S E  S S E  S    S E  S S E  S S E  S S E  S  
------------------------------|------------------------------|
------------------------------|------------------------------|
------------------------------|------------------------------|
------------------------------|------------------------------|
--1-1--0-1-1--0-1-1--0-1-1--0-|--3-3--1-3-3--1-3-3--1-3-3--0-|


  S E  S S E  S S E  S S E  S    S E  S S E  S S E  S S E  S  
------------------------------|------------------------------|
------------------------------|------------------------------|
------------------------------|------------------------------|
------------------------------|------------------------------|
--1-1--0-1-1--0-1-1--0-1-1--0-|--3-3--1-3-3--1-3-3--1-3-3--0-|


  S E  S S E  S S E  S S E  S    Q    H          Q      
------------------------------|------------------------|
------------------------------|------------------------|
------------------------------|------------------------|
------------------------------|------------------------|
--1-1--0-1-1--0-1-1--0-1-1--0-|--3-------------/12\----|


    E  S S  S S E  S S S S  S S S  S    E  S  S S  S  E  S S S  S S S S  S  
|------------------------------------|-------------------------------------|
|*-----------------------------------|-----5h-7--------------3h-5-3--------|
|--------3h-5------------3h-5-3------|----------5h-7-\3--L-3--------3-3p-0-|
|*--0--0------0-3--L-3-3--------3p-0-|--5----------------------------------|
|------------------------------------|-------------------------------------|


  E  S S  S S E  S S S S  S S S  S    E  S  S S  S  E  S S S S  S S S S  
-----------------------------------|------------------------------------|
-----------------------------------|-----5h-7----------------3h-5-------|
-------3h-5------------3h-5-3------|----------5h-7-\3--L-3-3------3-----|
--0--0------0-3--L-3-3--------3p-0-|--5-----------------------------3---|
-----------------------------------|----------------------------------0-|


  S E  S S E  S S E  S S E  S    S E  S S E  S S S E    S   S  E      
------------------------------|-------------------------------------||
------------------------------|------------------------------------*||
------------------------------|-------------------------------------||
------------------------------|------------------------10h-12-10\--*||
--1-1--0-1-1--0-1-1--0-1-1--0-|--1-1--0-1-1--0-3-3-3/---------------||


  S E  S E  E  S E  S   E  E     S E  S E  E  S E  S  Q      
------------------------------|-----------------------------|
------------------------------|-----------------------------|
------------------------------|----------------------/8\----|
--5-5--0-3--5--3-3--0-3g5--3--|--5-5--0-3--5--3-3--0--------|
------------------------------|-----------------------------|


  W                   W                   W                   W                 
-------------------|-------------------|-------------------|-------------------|
-------------------|-------------------|-------------------|-------------------|
-------------------|-------------------|-------------------|-------------------|
--0----------------|--L----------------|-------------------|-------------------|
-------------------|-------------------|-------------------|-------------------|


  W                   W                   W                   W                 
-------------------|-------------------|-------------------|-------------------|
-------------------|-------------------|-------------------|-------------------|
-------------------|-------------------|-------------------|-------------------|
-------------------|-------------------|-------------------|-------------------|
-------------------|-------------------|-------------------|-------------------|


  W                   W                   W                   W                 
-------------------|-------------------|-------------------|-------------------|
-------------------|-------------------|-------------------|-------------------|
-------------------|-------------------|-------------------|-------------------|
-------------------|-------------------|-------------------|-------------------|
-------------------|-------------------|-------------------|-------------------|


  W                   W                   W                 
-------------------|-------------------|-------------------|
-------------------|-------------------|-------------------|
-------------------|-------------------|-------------------|
-------------------|-------------------|-------------------|
-------------------|-------------------|-------------------|


  W                  
-------------------||
-------------------||
-------------------||
-------------------||
-------------------||




Duration Legend
---------------
W - whole
H - half
Q - quarter
E - 8th
S - 16th
T - 32nd
X - 64th
. - note dotted
|-n-|  - n-tuplets


Tablature Legend
----------------
L - tied note
x - dead note
g - grace note
(n) - ghost note
> - accentuded note
NH - natural harmonic
AH - artificial harmonic
TH - tapped harmonic
SH - semi harmonic
PH - pitch harmonic
h - hammer on
p - pull off
b - bend
br - bendRelease
pb - preBend
pbr - preBendRelease
brb - bendReleaseBend
\n/ - tremolo bar dip
\n - tremolo bar dive
-/n - tremolo bar Release up
/n\ - tremolo bar inverted dip
/n - tremolo bar return
-\n - tremolo bar Release down
S - shift slide
s - legato slide
/ -  slide into from below or out of upwards
\ -  slide into from above or out of downwards
~ - vibrato
W - wide vibrato
tr - trill
TP - tremolo picking
T - tapping
S - slap
P - pop
< - fade in
^ - brush up
v - brush down
comments
We did not receive enough feedback on this tab! Please rate:
print report bad tab
1 2 3 4 5
I want to post or [tab]
guest
You may want to rate the tab now too:
select rating
Please do not post tabs as comments. Select "correction" instead!