Oops, an error
Loading. Please wait.

The Registration - The Sapphire Bullets Of Pure Love Guitar 2 Tab

161 views 3 this week
no commentswrite comment
1 2 3 4 5
excellent!
x 1
add to favorites launch autoscroll
font size
0
reset
Autoscroll
+/-
esc
set tempo
stop
Contributor
Difficulty
Tuning
intermediate
D A D G B E
WARNING: You are trying to view
                                    content from Ultimate-Guitar.com
                                    in an unauthorized application,
                                    which is prohibited.

                                    Please use an official Ultimate
                                    Guitar Tabs application for iPhone,
                                    iPad or Android to access legitimate
                                    chords, guitar, bass, and drum tabs
                                    from Ultimate-Guitar.com database.

                                    Type "ultimate guitar tabs" in Apple
                                    App Store's or Android Market's
                                    search to find the application.
                      The Sapphire Bullets of Pure Love                         


                                                                The Registration
Mark



     W                   W                   W                 
E||-------------------|-------------------|-------------------|
B||-------------------|-------------------|-------------------|
G||-------------------|-------------------|-------------------|
D||-------------------|-------------------|-------------------|
A||-------------------|-------------------|-------------------|
D||-------------------|-------------------|-------------------|


  W                   W                   W                   W                 
-------------------|-------------------|-------------------|-------------------|
-------------------|-------------------|-------------------|-------------------|
-------------------|-------------------|-------------------|-------------------|
-------------------|-------------------|-------------------|-------------------|
-------------------|-------------------|-------------------|-------------------|
-------------------|-------------------|-------------------|-------------------|


                      PM PM                              
  W                   E  E    E  E  E  E   S   S  S   S  
-------------------|------------------------------------|
-------------------|------------------------------------|
-------------------|--------/10--9--L-------------------|
-------------------|--0--0-------------7--10h-12--------|
-------------------|-----------------------------10h-12-|
-------------------|------------------------------------|


                             PM PM                              
  Q    S  S E  E  E  Q       E  E    E  E  E  E   S   S  S   S  
--------------------------|------------------------------------|
--------------------------|------------------------------------|
-------9------------------|--------/10--9--L-------------------|
---------10---------------|--0--0-------------7--10h-12--------|
--8---------7--L--7--8----|-----------------------------10h-12-|
--------------------------|------------------------------------|


  Q    S  S E  E  E   Q       S  S S S E  S  S S S E  E  E   
---------------------------|--------------------------0-----|
---------------------------|-----------5-----------6-----6--|
-------9-------------------|-------5-----------5------------|
---------10----------------|--5h-7---7----5h-7---7----------|
--8---------7--L--7--10----|--------------------------------|
---------------------------|--------------------------------|


                                    ^                 
  S  S S S E  S  S S S  E  E  E     W                 
---------------------------------|-------------------|
-----------5---------------------|-------------------|
-------5-----------5-------------|--5----------------|
--5h-7---7----5h-7---7-\5--------|--7----------------|
---------------------------8--7--|--5----------------|
---------------------------------|-------------------|


                               PM PM                       
    E  S S S S E  H            E  E  S  S E  S S E  E  E   
-------5--------------------|----------------5------0-----|
--6g8----8-6-5-6------------|-------------6----5-6--------|
------------------7~--------|--------5s-7--------------5--|
----------------------------|-----------------------------|
----------------------------|--8--8-----------------------|
----------------------------|-----------------------------|


  PM PM                              <                                          
  E  E  S  S E  S S E  S  S S  S     W                    H.           S S S S  
----------------5----------------|--------------------|----------------0-0-0-0-|
-------------6----5-6------------|--------------------|----------------6-6-6-6-|
--------5s-7-----------5h-7------|--------------------|----------------5-5-5-5-|
----------------------------5h-7-|--\3----------------|------------------------|
--8--8---------------------------|--------------------|--/5--------------------|
---------------------------------|--------------------|------------------------|


    E  S S S S E  S E  S S S S  S     E  S S S S E  S E  S S S S  S   
|----------------------------------|-------------3--L-3--3-3-3-3-----|
|---3--3-3-----3--L-3--3-5-5-5-----|--6--6-6-----3--L-3--3-3-3-3-----|
|*--2--2-2-----5--L-5--5-L-5-5-----|--7--7-7-----5--L-5--5-5-5-5-----|
|*--0--0-0-x-x-5--L-5--5-L-5-5-(0)-|--5--5-5-x-x-5--L-5--5-5-5-5-(0)-|
|---0--0-0-x-x-3--L-3--3-L-3-3--0--|--5--5-5-x-x-3--L-3--3-3-3-3--0--|
|---0--0-0-x-x-3--L-3--3-L-3-3--0--|--5--5-5-x-x------------------0--|


  E  S S S S E  S E  S S S S  S     E  S S S S E  S E  S S S S  S   
---------------------------------|-------------3--L-3--3-3-3-3-----|
--3--3-3-----3--L-3--3-5-5-5-----|--6--6-6-----3--L-3--3-3-3-3-----|
--2--2-2-----5--L-5--5-L-5-5-----|--7--7-7-----5--L-5--5-5-5-5-----|
--0--0-0-x-x-5--L-5--5-L-5-5-(0)-|--5--5-5-x-x-5--L-5--5-5-5-5-(0)-|
--0--0-0-x-x-3--L-3--3-L-3-3--0--|--5--5-5-x-x-3--L-3--3-3-3-3--0--|
--0--0-0-x-x-3--L-3--3-L-3-3--0--|--5--5-5-x-x------------------0--|


  S E  S S E  S S E  S S E  S    S E  S S E  S S S S S S S E     
--1-1--1-1-1--1-1-1--1-1-1--1-|--1-1--1-1-1--1-3-3-3-3-3-3-3---||
--1-1--1-1-1--1-1-1--1-1-1--1-|--1-1--1-1-1--1-3-3-3-3-3-3-3---||
--3-3--3-3-3--3-3-3--3-3-3--3-|--3-3--3-3-3--3-5-5-5-5-5-5-5--*||
--3-3--3-3-3--3-3-3--3-3-3--3-|--3-3--3-3-3--3-5-5-5-5-5-5-5--*||
--1-1--1-1-1--1-1-1--1-1-1--1-|--1-1--1-1-1--1-3-3-3-3-3-3-3---||
------------------------------|--------------------------------||


  S E  S E  E  S E  S   E  E     Q    H.              H.             Q       
------------------------------|--------------------|------------------------|
--6-6----------3-3------------|--------------------|------------------------|
--7-7----------5-5------------|--------------------|------------------------|
--5-5--0-3--5--3-3--0-3g5--3--|--0-----------------|------------------------|
--5-5--0-3--5--3-3--0-3g5--3--|--0-----------------|---------------/(7)\----|
--5-5--0-3--5--3-3--0-3g5--3--|--0-----------------|----------------/7\-----|


  PM PM PM PM PM PM PM   PM PM PM PM   PM  
  E  S  S  S  S  S  S  S S  E  S  S    E   
------------------------------------------|
------------------------------------------|
------------------------------------------|
--------------------3--L-2----------------|
-----5-----3h-5-------------3--3h-5-------|
--0-----0--------0-------------------3g5--|


  PM PM PM PM PM PM PM   PM PM PM PM PM  
  E  S  S  S  S  S  S  S S  E  S  S  E   
----------------------------------------|
----------------------------------------|
----------------------------------------|
--------------------3--L-2--------------|
-----5-----3h-5-------------3--3h-5-----|
--3-----3--------3-------------------3--|


  PM PM PM PM PM   PMPM   PM PM PM PM PM  
  E  S  S  S  S    S S  S S  E  S  S  E   
-----------------------------------------|
-----------------------------------------|
-----------------------------------------|
---------------------3--L-2--------------|
-----5-----3h-5--------------3--3--5--0--|
--5-----5--------3g5---------------------|


  PM PM PM PM PM PM PM PM PM PM PM PM PM   PM   
  E  S  S  S  S  S  S  S  S  S  S  S  S    E    
-----------------------------------------------|
-----------------------------------------------|
-----------------------------------------------|
--------------------5-----3-----2--------------|
--1--5--1--3h-5--1-----1-----1-----1-----3g5\--|
--------------------------------------3--3g5\--|


  PM PM PM PM PM PM PM   PM PM PM PM   PM  
  E  S  S  S  S  S  S  S S  E  S  S    E   
------------------------------------------|
------------------------------------------|
------------------------------------------|
--------------------3--L-2----------------|
-----5-----3h-5-------------3--3h-5-------|
--0-----0--------0-------------------3g5--|


  PM PM PM PM PM PM PM   PM PM PM PM PM  
  E  S  S  S  S  S  S  S S  E  S  S  E   
----------------------------------------|
----------------------------------------|
----------------------------------------|
--------------------3--L-2--------------|
-----5-----3h-5-------------3--3h-5-----|
--3-----3--------3-------------------3--|


  PM PM PM PM PM   PMPM   PM PM PM PM PM  
  E  S  S  S  S    S S  S S  E  S  S  E   
-----------------------------------------|
-----------------------------------------|
-----------------------------------------|
---------------------3--L-2--------------|
-----5-----3h-5--------------3--3--5--0--|
--5-----5--------3g5---------------------|


  PM PM PM PM PM PM PM PM PM                                     
  E  S  S  S  S  S  S  S  S   E  E   E        W                  
----------------------------------------|-----------------------|
---------------------------------6h--8--|--8g10~----------------|
----------------------------------------|-----------------------|
--------------------5-----3--/8---------|-----------------------|
--1--5--1--3h-5--1-----1----------------|-----------------------|
----------------------------------------|-----------------------|


    W                        H          H            H.               Q     
----------------------|--------------------------|-------------------------|
--/13~----------------|--13g15~--------\8--------|--10br~-------------L----|
----------------------|--------------------------|-------------------------|
----------------------|--------------------------|-------------------------|
----------------------|--------------------------|-------------------------|
----------------------|--------------------------|-------------------------|


   W                      W                        H         Q     Q      
---------------------|----------------------|---------------15----12b----|
--10~----------------|--/13~----------------|--13g15---------------------|
---------------------|----------------------|----------------------------|
---------------------|----------------------|----------------------------|
---------------------|----------------------|----------------------------|
---------------------|----------------------|----------------------------|


   TP                                              
   H.              Q        H.            S S S S  
--12pb------------12\----|--6~------------0-0-0-0-|
-------------------------|----------------6-6-6-6-|
-------------------------|----------------5-5-5-5-|
-------------------------|------------------------|
-------------------------|------------------------|
-------------------------|------------------------|


    E  S S S S E  S E  S S S S  S     E  S S S S E  S E  S S S S  S   
|----------------------------------|-------------3--L-3--3-3-3-3-----|
|---3--3-3-----3--L-3--3-5-5-5-----|--6--6-6-----3--L-3--3-3-3-3-----|
|*--2--2-2-----5--L-5--5-L-5-5-----|--7--7-7-----5--L-5--5-5-5-5-----|
|*--0--0-0-x-x-5--L-5--5-L-5-5-(0)-|--5--5-5-x-x-5--L-5--5-5-5-5-(0)-|
|---0--0-0-x-x-3--L-3--3-L-3-3--0--|--5--5-5-x-x-3--L-3--3-3-3-3--0--|
|---0--0-0-x-x-3--L-3--3-L-3-3--0--|--5--5-5-x-x------------------0--|


  E  S S S S E  S E  S S S S  S     E  S S S S E  S E  S S S S  S   
---------------------------------|-------------3--L-3--3-3-3-3-----|
--3--3-3-----3--L-3--3-5-5-5-----|--6--6-6-----3--L-3--3-3-3-3-----|
--2--2-2-----5--L-5--5-L-5-5-----|--7--7-7-----5--L-5--5-5-5-5-----|
--0--0-0-x-x-5--L-5--5-L-5-5-(0)-|--5--5-5-x-x-5--L-5--5-5-5-5-(0)-|
--0--0-0-x-x-3--L-3--3-L-3-3--0--|--5--5-5-x-x-3--L-3--3-3-3-3--0--|
--0--0-0-x-x-3--L-3--3-L-3-3--0--|--5--5-5-x-x------------------0--|


  S E  S S E  S S E  S S E  S    S E  S S E  S S S S S S S E     
--1-1--1-1-1--1-1-1--1-1-1--1-|--1-1--1-1-1--1-3-3-3-3-3-3-3---||
--1-1--1-1-1--1-1-1--1-1-1--1-|--1-1--1-1-1--1-3-3-3-3-3-3-3---||
--3-3--3-3-3--3-3-3--3-3-3--3-|--3-3--3-3-3--3-5-5-5-5-5-5-5--*||
--3-3--3-3-3--3-3-3--3-3-3--3-|--3-3--3-3-3--3-5-5-5-5-5-5-5--*||
--1-1--1-1-1--1-1-1--1-1-1--1-|--1-1--1-1-1--1-3-3-3-3-3-3-3---||
------------------------------|--------------------------------||


                                                     PM PM PM                  
                                                     |--3--|                   
  S E  S E  E  S E  S   E  E     S E  S E  E  S E  S E  E  E     H.            
------------------------------|-------------------------------|---------------|
--6-6----------3-3------------|--6-6----------3-3-------------|---------------|
--7-7----------5-5------------|--7-7----------5-5-------------|---------------|
--5-5--0-3--5--3-3--0-3g5--3--|--5-5----------3-3--0-3--5--3--|--0------------|
--5-5--0-3--5--3-3--0-3g5--3--|--5-5----------3-3--0-3--5--3--|--0------------|
--5-5--0-3--5--3-3--0-3g5--3--|--5-5--0-3--5--3-3--0-3--5--3--|--0------------|


  E  S S S S E  E  E     E  S S S S E  E  E     E  S S S S E  E  E   
-----------0----------|-----------0----------|-----------0----------|
-------7-L---7--------|-------6-L---6--------|-------7-L---7--------|
-----7----------7-----|-----7----------7-----|-----7----------7-----|
--0----------------0--|--8----------------8--|--0----------------0--|
----------------------|----------------------|----------------------|
----------------------|----------------------|----------------------|


                                                 ^                    
  E  S S S S E    E  S S S S E       E  E  E     E  S S S S E  E  E   
-----------0---------------0-----|---0--0--0--|--0--------0----------|
-------6-L---6---------8-L---8\--|---0--0--0--|--7----7-L---7--------|
-----7---------------9-----------|--/6--6--6--|--7--7----------7-----|
--8-------------/10--------------|--/7--7--7--|--0----------------0--|
---------------------------------|---0--0--0--|----------------------|
---------------------------------|------------|----------------------|


  E  S S S S E  E  E     E  S S S S E  E  E     E  S S S S E    E  S S S S E    
-----------0----------|-----------0----------|-----------0---------------0-----|
-------6-L---6--------|-------7-L---7--------|-------6-L---6---------8-L---8\--|
-----7----------7-----|-----7----------7-----|-----7---------------9-----------|
--8----------------8--|--0----------------0--|--8-------------/10--------------|
----------------------|----------------------|---------------------------------|
----------------------|----------------------|---------------------------------|


                           PM PM       PM PM               PM PM       PM PM  
   E  Q         E  S S S S S  S  E  E  S  S     E  S S S S S  S  E  E  S  S   
---0-------||---2----0-0---------0--0--------|--1----1-L---------5--3--------|
---0-------||---3----3-3---------3--3--------|--1----1-L---------3--3--------|
--/6-------||*--2----2-2---------2--2--------|--3--x-3-L-x-------3--3--2--2--|
--/7-------||*--0--x-0-0-x-0--0--4--0--0--0--|--3--x-3-L-x-0--0--------2--2--|
---0-------||---0--x-0-0-x-0--0--0--0--0--0--|--1--x-1-L-x-1--1--------0--0--|
-----------||---0--x-0-0-x-0--0--0--0--0--0--|-------------------------------|


             PM PM       PM PM                                                  
  E  S S S S S  S  E  E  S  S     E  S S S S S S E  S S S S S  S    E  E  E   3x
--2----0-0---------0--0--------|--1----1-L-------3----0-L--------|--0--0--0---||
--3----3-3---------3--3--------|--1----1-L-------3----0-L--------|--0--0--0---||
--2----2-2---------2--2--------|--3--x-3-L-x-x-x-0--x-0-L--------|--6--6--6--*||
--0--x-0-0-x-0--0--4--0--0--0--|--3--x-3-L-x-x-x-2--x-2-L--------|--7--7--7--*||
--0--x-0-0-x-0--0--0--0--0--0--|--1--x-1-L-x-x-x-3--x-3-L-0------|--0--0--0---||
--0--x-0-0-x-0--0--0--0--0--0--|--------------------------0-5h-7-|------------||


  E  E  E  E  E  E  E  E     E  E  E  E  Q    Q     
--0--0--0--0--0--0--0--0--|--1--1--1--1--3---------|
--0--0--0--0--0--0--0--0--|--1--1--1--1--3---------|
--2--2--2--2--2--2--2--2--|--3--3--3--3--5---------|
--2--2--2--2--2--2--2--2--|--3--3--3--3--5---------|
--0--0--0--0--0--0--0--0--|--1--1--1--1--3---------|
--------------------------|------------------------|


  S E  S S E  S S E  S S E   S     S E  S S E  S S E  S S E   S   
--1-1--1-1-1--1-1-1--1-1-1------|--3-3--3-3-3--3-3-3--3-3-3------|
--1-1--1-1-1--1-1-1--1-1-1------|--3-3--3-3-3--3-3-3--3-3-3------|
--3-3--3-3-3--3-3-3--3-3-3--(0)-|--5-5--5-5-5--5-5-5--5-5-5--(0)-|
--3-3--3-3-3--3-3-3--3-3-3---0--|--5-5--5-5-5--5-5-5--5-5-5---0--|
--1-1--1-1-1--1-1-1--1-1-1---0--|--3-3--3-3-3--3-3-3--3-3-3---0--|
--------------------------------|--------------------------------|


  S E  S S E  S S E  S S E   S     S E  S S E  S S E  S S E   S   
--1-1--1-1-1--1-1-1--1-1-1------|--3-3--3-3-3--3-3-3--3-3-3------|
--1-1--1-1-1--1-1-1--1-1-1------|--3-3--3-3-3--3-3-3--3-3-3------|
--3-3--3-3-3--3-3-3--3-3-3--(0)-|--5-5--5-5-5--5-5-5--5-5-5--(0)-|
--3-3--3-3-3--3-3-3--3-3-3---0--|--5-5--5-5-5--5-5-5--5-5-5---0--|
--1-1--1-1-1--1-1-1--1-1-1---0--|--3-3--3-3-3--3-3-3--3-3-3---0--|
--------------------------------|--------------------------------|


  S E  S S E  S S E  S S E   S     S E  S S E  S S E  S S E   S   
--1-1--1-1-1--1-1-1--1-1-1------|--3-3--3-3-3--3-3-3--3-3-3------|
--1-1--1-1-1--1-1-1--1-1-1------|--3-3--3-3-3--3-3-3--3-3-3------|
--3-3--3-3-3--3-3-3--3-3-3--(0)-|--5-5--5-5-5--5-5-5--5-5-5--(0)-|
--3-3--3-3-3--3-3-3--3-3-3---0--|--5-5--5-5-5--5-5-5--5-5-5---0--|
--1-1--1-1-1--1-1-1--1-1-1---0--|--3-3--3-3-3--3-3-3--3-3-3---0--|
--------------------------------|--------------------------------|


                                                 PM   PM   PM    
                                                 |----3----|     
  S E  S S E  S S E  S S E   S     S E  S E  S S Q    Q    Q     
--1-1--1-1-1--1-1-1--1-1-1------|--3-3--3-3--3------------------|
--1-1--1-1-1--1-1-1--1-1-1------|--3-3--3-3--3------------------|
--3-3--3-3-3--3-3-3--3-3-3--(0)-|--5-5--5-5--5------------------|
--3-3--3-3-3--3-3-3--3-3-3---5--|--5-5--5-5--5-3-0----0----0----|
--1-1--1-1-1--1-1-1--1-1-1---0--|--3-3--3-3--3-3-0----0----0----|
--------------------------------|--------------3-0----0----0----|


  S E  S S E  S S E  S S E   S     S E  S S E  S S E  S S E   S   
--1-1--1-1-1--1-1-1--1-1-1------|--3-3--3-3-3--3-3-3--3-3-3------|
--1-1--1-1-1--1-1-1--1-1-1------|--3-3--3-3-3--3-3-3--3-3-3------|
--3-3--3-3-3--3-3-3--3-3-3--(0)-|--5-5--5-5-5--5-5-5--5-5-5--(0)-|
--3-3--3-3-3--3-3-3--3-3-3---0--|--5-5--5-5-5--5-5-5--5-5-5---0--|
--1-1--1-1-1--1-1-1--1-1-1---0--|--3-3--3-3-3--3-3-3--3-3-3---0--|
--------------------------------|--------------------------------|


  S E  S S E  S S E  S S E   S     S E  S S E  S S E  S S E   S   
--1-1--1-1-1--1-1-1--1-1-1------|--3-3--3-3-3--3-3-3--3-3-3------|
--1-1--1-1-1--1-1-1--1-1-1------|--3-3--3-3-3--3-3-3--3-3-3------|
--3-3--3-3-3--3-3-3--3-3-3--(0)-|--5-5--5-5-5--5-5-5--5-5-5--(0)-|
--3-3--3-3-3--3-3-3--3-3-3---0--|--5-5--5-5-5--5-5-5--5-5-5---0--|
--1-1--1-1-1--1-1-1--1-1-1---0--|--3-3--3-3-3--3-3-3--3-3-3---0--|
--------------------------------|--------------------------------|


  S E  S S E  S S E  S S E   S     S E  S S E  S S E  S S E   S   
--1-1--1-1-1--1-1-1--1-1-1------|--3-3--3-3-3--3-3-3--3-3-3------|
--1-1--1-1-1--1-1-1--1-1-1------|--3-3--3-3-3--3-3-3--3-3-3------|
--3-3--3-3-3--3-3-3--3-3-3--(0)-|--5-5--5-5-5--5-5-5--5-5-5--(0)-|
--3-3--3-3-3--3-3-3--3-3-3---0--|--5-5--5-5-5--5-5-5--5-5-5---0--|
--1-1--1-1-1--1-1-1--1-1-1---0--|--3-3--3-3-3--3-3-3--3-3-3---0--|
--------------------------------|--------------------------------|


                                          <             
  S E  S S E  S S E  S S E   S     Q      H.            
--1-1--1-1-1--1-1-1--1-1-1------|--3-------------------|
--1-1--1-1-1--1-1-1--1-1-1------|--3-------------------|
--3-3--3-3-3--3-3-3--3-3-3--(0)-|--5-------------------|
--3-3--3-3-3--3-3-3--3-3-3---5--|--5----<>5------------|
--1-1--1-1-1--1-1-1--1-1-1---0--|--3----<>5------------|
--------------------------------|-------<>5------------|


    E  S S S S E  S E  S S S S  S     E  S S S S E  S E  S S S S  S   
|----------------------------------|-------------3--L-3--3-3-3-3-----|
|---3--3-3-----3--L-3--3-5-5-5-----|--6--6-6-----3--L-3--3-3-3-3-----|
|*--2--2-2-----5--L-5--5-L-5-5-----|--7--7-7-----5--L-5--5-5-5-5-----|
|*--0--0-0-x-x-5--L-5--5-L-5-5-(0)-|--5--5-5-x-x-5--L-5--5-5-5-5-(0)-|
|---0--0-0-x-x-3--L-3--3-L-3-3--0--|--5--5-5-x-x-3--L-3--3-3-3-3--0--|
|---0--0-0-x-x-3--L-3--3-L-3-3--0--|--5--5-5-x-x------------------0--|


  E  S S S S E  S E  S S S S  S     E  S S S S E  S E  S S S S  S   
---------------------------------|-------------3--L-3--3-3-3-3-----|
--3--3-3-----3--L-3--3-5-5-5-----|--6--6-6-----3--L-3--3-3-3-3-----|
--2--2-2-----5--L-5--5-L-5-5-----|--7--7-7-----5--L-5--5-5-5-5-----|
--0--0-0-x-x-5--L-5--5-L-5-5-(0)-|--5--5-5-x-x-5--L-5--5-5-5-5-(0)-|
--0--0-0-x-x-3--L-3--3-L-3-3--0--|--5--5-5-x-x-3--L-3--3-3-3-3--0--|
--0--0-0-x-x-3--L-3--3-L-3-3--0--|--5--5-5-x-x------------------0--|


  S E  S S E  S S E  S S E  S    S E  S S E  S S S S S S S E     
--1-1--1-1-1--1-1-1--1-1-1--1-|--1-1--1-1-1--1-3-3-3-3-3-3-3---||
--1-1--1-1-1--1-1-1--1-1-1--1-|--1-1--1-1-1--1-3-3-3-3-3-3-3---||
--3-3--3-3-3--3-3-3--3-3-3--3-|--3-3--3-3-3--3-5-5-5-5-5-5-5--*||
--3-3--3-3-3--3-3-3--3-3-3--3-|--3-3--3-3-3--3-5-5-5-5-5-5-5--*||
--1-1--1-1-1--1-1-1--1-1-1--1-|--1-1--1-1-1--1-3-3-3-3-3-3-3---||
------------------------------|--------------------------------||


                                                     PM                        
  S E  S E  E  S E  S   E  E     S E  S E  E  S E  S Q       W                 
------------------------------|---------------------------|-------------------|
--6-6----------3-3------------|--6-6----------3-3---------|-------------------|
--7-7----------5-5------------|--7-7----------5-5---------|-------------------|
--5-5--0-3--5--3-3--0-3g5--3--|--5-5--0-3--5--3-3--0-3----|--0----------------|
--5-5--0-3--5--3-3--0-3g5--3--|--5-5--0-3--5--3-3--0-3----|--0----------------|
--5-5--0-3--5--3-3--0-3g5--3--|--5-5--0-3--5--3-3--0-3----|--0----------------|


  W                   W                   W                 
-------------------|-------------------|-------------------|
-------------------|-------------------|-------------------|
-------------------|-------------------|-------------------|
--L----------------|-------------------|-------------------|
--L----------------|-------------------|-------------------|
--L----------------|-------------------|-------------------|


  E  E  E  E  E  E  E  E     E  E  E  E  E  E  E  E   
-----------0--------------|-----------0-----------0--|
--------6--------6--------|--------6--------6--------|
-----5--------------7-----|-----5--------------7-----|
--0-----------0--------7--|--5-----------5-----------|
--------------------------|--------------------------|
--------------------------|--------------------------|


  E  E  E  E  E  E  E  E     E  E  E  E  E  E  E  E   
-----------0--------------|-----------0-----------0--|
--------6--------6--------|--------6--------6--------|
-----5--------------7-----|-----5--------------7-----|
--0-----------0--------7--|--5-----------5-----------|
--------------------------|--------------------------|
--------------------------|--------------------------|


  E   S S S   S S S S  S E  S   S S   S  
-------------------------0--------------|
------------------8-L-------------------|
-----10---9h-10-------10----7h-10-------|
--0-----0-------0-----------------7h-10-|
----------------------------------------|
----------------------------------------|


  E   S S S   S S S S  S E  S   S S   S     E   E   E   E   E   E   E   E   
-------------------------0--------------|--12----------12----------12------|
------------------8-L-------------------|------13----------13----------13--|
-----10---9h-10-------10----7h-10-------|--14------14----------14----------|
--0-----0-------0-----------------7h-10-|----------------------------------|
----------------------------------------|----------------------------------|
----------------------------------------|----------------------------------|


   E   E   E   E   E   E   E   E     E  S S S  S S E  S E  S  S S  S  
--12----------12----------12------|-------------------0--------------|
------13----------13----------13--|----------------6-----------------|
--12------12----------12----------|-----7---5h-7--------5--5h-7------|
----------------------------------|-------0------0--------------5h-7-|
----------------------------------|----------------------------------|
----------------------------------|--0-------------------------------|


                                     ^                                      
  E  S S S  S S E  S E  S  S S  S    W                   W                  
-------------------0--------------|--5----------------|--L----------------||
----------------6-----------------|--6----------------|--L----------------||
-----7---5h-7--------5--5h-7------|--7----------------|--L----------------||
--5----0------7--------------5h-7-|--0----------------|--L----------------||
----------------------------------|-------------------|-------------------||
----------------------------------|-------------------|-------------------||




Duration Legend
---------------
W - whole
H - half
Q - quarter
E - 8th
S - 16th
T - 32nd
X - 64th
. - note dotted
|-n-|  - n-tuplets


Tablature Legend
----------------
L - tied note
x - dead note
g - grace note
(n) - ghost note
> - accentuded note
NH - natural harmonic
AH - artificial harmonic
TH - tapped harmonic
SH - semi harmonic
PH - pitch harmonic
h - hammer on
p - pull off
b - bend
br - bendRelease
pb - preBend
pbr - preBendRelease
brb - bendReleaseBend
\n/ - tremolo bar dip
\n - tremolo bar dive
-/n - tremolo bar Release up
/n\ - tremolo bar inverted dip
/n - tremolo bar return
-\n - tremolo bar Release down
S - shift slide
s - legato slide
/ -  slide into from below or out of upwards
\ -  slide into from above or out of downwards
~ - vibrato
W - wide vibrato
tr - trill
TP - tremolo picking
T - tapping
S - slap
P - pop
< - fade in
^ - brush up
v - brush down
comments
We did not receive enough feedback on this tab! Please rate:
1 2 3 4 5
I want to post or [tab]
guest
You may want to rate the tab now too:
select rating
Please do not post tabs as comments. Select "correction" instead!