Oops, an error
Loading. Please wait.

The Reject - Interlude Tab

72 views 1 this week
no commentswrite comment
1 2 3 4 5
please rate
add to favorites launch autoscroll
font size
0
reset
Autoscroll
+/-
esc
set tempo
stop
Contributor
Difficulty
novice
WARNING: You are trying to view
                                    content from Ultimate-Guitar.com
                                    in an unauthorized application,
                                    which is prohibited.

                                    Please use an official Ultimate
                                    Guitar Tabs application for iPhone,
                                    iPad or Android to access legitimate
                                    chords, guitar, bass, and drum tabs
                                    from Ultimate-Guitar.com database.

                                    Type "ultimate guitar tabs" in Apple
                                    App Store's or Android Market's
                                    search to find the application.
==================================================================================
Guitar Help
==================================================================================

o = Open
m = Palm-Muted
x = Harmonics

==================================================================================
Guitar 1 Tabs
==================================================================================

  0:00
E ------------------------------------------------------------------------------------------------|
B ------------------------------------------------14----14----------------14----14----12----12----|
G ------------------------------------------------------------11----11----------------------------|
D ------------------------------------------------------------------------------------------------|
A ------------------------------------------------------------------------------------------------|
E ------------------------------------------------------------------------------------------------|
  ------------------------------------------------m-----m-----m-----m-----m-----m-----m-----m-----|

  0:02
E ------------------------------------------------------------------------------------------------|
B 14----14----------------14----14----12----12----14----14----------------14----14----12----12----|
G ------------11----11----------------------------------------11----11----------------------------|
D ------------------------------------------------------------------------------------------------|
A ------------------------------------------------------------------------------------------------|
E ------------------------------------------------------------------------------------------------|
  m-----m-----m-----m-----m-----m-----m-----m-----m-----m-----m-----m-----m-----m-----m-----m-----|

  0:05
E ------------------------------------------------------------------------------------------------|
B 14----14----------------14----14----12----12----------------------------------------------------|
G ------------11----11----------------------------14----------------14----------------14----16----|
D ------------------------------------------------------12----12----------12----12----------------|
A ------------------------------------------------------------------------------------------------|
E ------------------------------------------------------------------------------------------------|
  m-----m-----m-----m-----m-----m-----m-----m-----o-----m-----m-----o-----m-----m-----o-----------|

  0:08
E ------------------------------------------------------------------------------------------------|
B ------------------------------------------------------------------------------------------------|
G 14----------12----------11--12--11--------------14----------------14----------------14----16----|
D ------------------------------------14----------------12----12----------12----12----------------|
A ------------------------------------------------------------------------------------------------|
E ------------------------------------------------------------------------------------------------|
  o-----------o-----------o-----------o-----------o-----m-----m-----o-----m-----m-----o-----------|

  0:11
E ------------------------------------------------------------------------------------------------|
B ------------------------------------------------------------------------------------------------|
G 14----------12----------11--12--11--------------------------------------------------------------|
D ------------------------------------14----------9-----7--7--7--7--9-----7--7--7--7--9-----7--7--|
A ------------------------------------------------------------------------------------------------|
E ------------------------------------------------------------------------------------------------|
  o-----------o-----------o-----------o-----------o-----m--m--m--m--o-----m--m--m--m--o-----m--m--|

  0:14
E ------------------------------------------------------------------------------------------------|
B ------------------------------------------------------------------------------------------------|
G ------------------------------------------------------------------------------------------------|
D 9-----7--7--7--7--9-----7--7--7--7--9-----7--7--9-----7--7--7--7--9-----7--7--7--7--9-----7--7--|
A ------------------------------------------------------------------------------------------------|
E ------------------------------------------------------------------------------------------------|
  o-----m--m--m--m--o-----m--m--m--m--o-----m--m--o-----m--m--m--m--o-----m--m--m--m--o-----m--m--|

  0:16
E ------------------------------------------------------------------------------------------------|
B ------------------------------------------------------------------------------------------------|
G ------------------------------------------------11----------9-----7-----9-----------7-----9-----|
D 9-----7--7--7--7--9-----7--7--7--7--9-----7--7--------------------------------------------------|
A ------------------------------------------------------------------------------------------------|
E ------------------------------------------------------------------------------------------------|
  o-----m--m--m--m--o-----m--m--m--m--o-----m--m--o-----------o-----o-----o-----------o-----o-----|

  0:19
E ------------------------------------------------------------------------------------------------|
B ------------------------------------------------------------------------------------------------|
G 11----------9-----7-----7-----------14----------------------------------------------------------|
D ------------------------------------------------9-----7--7--7--7--9-----7--7--7--7--9-----7--7--|
A ------------------------------------------------------------------------------------------------|
E ------------------------------------------------------------------------------------------------|
  o-----------o-----o-----o-----------o-----------o-----m--m--m--m--o-----m--m--m--m--o-----m--m--|

  0:22
E ------------------------------------------------------------------------------------------------|
B ------------------------------------------------------------------------------------------------|
G ------------------------------------------------------------------------------------------------|
D 9-----7--7--7--7--9-----7--7--7--7--9-----7--7--9-----7--7--7--7--9-----7--7--7--7--9-----7--7--|
A ------------------------------------------------------------------------------------------------|
E ------------------------------------------------------------------------------------------------|
  o-----m--m--m--m--o-----m--m--m--m--o-----m--m--o-----m--m--m--m--o-----m--m--m--m--o-----m--m--|

  0:25
E ------------------------------------------------------------------------------------------------|
B ------------------------------------------------14----------------12----14----12----10----------|
G ------------------------------------------------------------------------------------------------|
D 9-----7--7--7--7--9-----7--7--7--7--9-----7--7--------------------------------------------------|
A ------------------------------------------------------------------------------------------------|
E ------------------------------------------------------------------------------------------------|
  o-----m--m--m--m--o-----m--m--m--m--o-----m--m--o-----------------o-----o-----o-----o-----------|

  0:28
E ------------------------14----------12----------------------------------------------------------|
B ------10----------10----------------------------10----------10----10----12----14----15----------|
G ------------------------------------------------------------------------------------------------|
D ------------------------------------------------------------------------------------------------|
A ------------------------------------------------------------------------------------------------|
E ------------------------------------------------------------------------------------------------|
  ------o-----------o-----o-----------o-----------o-----------o-----o-----o-----o-----o-----------|

  0:31
E ------------------------------------------------------------------------------------------------|
B 14----------14----14----15----14----12----------17-17-17-17-15-15-15-15-13-13-13-13-12-12-12-12-|
G ------------------------------------------------------------------------------------------------|
D ------------------------------------------------------------------------------------------------|
A ------------------------------------------------------------------------------------------------|
E ------------------------------------------------------------------------------------------------|
  o-----------o-----o-----o-----o-----o-----------o--o--o--o--o--o--o--o--o--o--o--o--o--o--o--o--|

  0:33
E ------------------------------------------------12----10----------------------------------------|
B 13-13-13-13-12-12-12-12-10-10-10-10-12-12-12-12-------------12----10----------10----10--12--10--|
G ------------------------------------------------------------------------------------------------|
D ------------------------------------------------------------------------------------------------|
A ------------------------------------------------------------------------------------------------|
E ------------------------------------------------------------------------------------------------|
  o--o--o--o--o--o--o--o--o--o--o--o--o--o--o--o--o-----o-----o-----o-----------o-----o-----------|

  0:36
E ------------------------------------------------------------------------------------------------|
B ------------------10----------10----12----10----17-17-17-17-15-15-15-15-13-13-13-13-12-12-12-12-|
G 12----9-----12----------------------------------------------------------------------------------|
D ------------------------------------------------------------------------------------------------|
A ------------------------------------------------------------------------------------------------|
E ------------------------------------------------------------------------------------------------|
  o-----o-----o-----o-----------o-----o-----o-----o--o--o--o--o--o--o--o--o--o--o--o--o--o--o--o--|

  0:39
E ------------------------------------------------12----10----------------------------------------|
B 13-13-13-13-12-12-12-12-10-10-10-10-12-12-12-12-------------12----10----------10----10--12--10--|
G ------------------------------------------------------------------------------------------------|
D ------------------------------------------------------------------------------------------------|
A ------------------------------------------------------------------------------------------------|
E ------------------------------------------------------------------------------------------------|
  o--o--o--o--o--o--o--o--o--o--o--o--o--o--o--o--o-----o-----o-----o-----------o-----o-----------|

  0:42
E ------------------------------------------------------------------------------------------------|
B ------------------10----------10----12----10----------------------------------------------------|
G 12----9-----12----------------------------------------------------------------------------------|
D ------------------------------------------------------------------------------------------------|
A ------------------------------------------------------------------------------------------------|
E ------------------------------------------------------------------------------------------------|
  o-----o-----o-----o-----------o-----o-----o-----------------------------------------------------|

  0:45
E ------------------------------------------------------------------------------------------------|
B ------------------------------------------------12----11----12----13----12----11----12----13----|
G ------------------------------------------------------------------------------------------------|
D ------------------------------------------------------------------------------------------------|
A ------------------------------------------------------------------------------------------------|
E ------------------------------------------------------------------------------------------------|
  ------------------------------------------------o-----o-----o-----o-----o-----o-----o-----o-----|

  0:47
E ------------------------------------------------------------------------------------------------|
B 12----11----12----13----12----11----12----13----12----13----12----10----------10----12----13----|
G ------------------------------------------------------------------------12----------------------|
D ------------------------------------------------------------------------------------------------|
A ------------------------------------------------------------------------------------------------|
E ------------------------------------------------------------------------------------------------|
  o-----o-----o-----o-----o-----o-----o-----o-----o-----o-----o-----o-----o-----o-----o-----o-----|

  0:50
E ------------------------------------------------------------------------|
B 12----10----------10----12----13----12----------------------------------|
G ------------12----------------------------------------------------------|
D ------------------------------------------------------------------------|
A ------------------------------------------------------------------------|
E ------------------------------------------------------------------------|
  o-----o-----o-----o-----o-----o-----o-----o-----------------------------|

==================================================================================
Guitar 2 Tabs
==================================================================================

  0:00
E ------------------------------------------------------------------------------------------------|
B ------------------------------------------------------------------------------------------------|
G ------------------------------------------------------------------------------------------------|
D ------------------------------------------------4-----4-----4-----4-----4-----4-----4-----4-----|
A ------------------------------------------------4-----4-----4-----4-----4-----4-----4-----4-----|
E ------------------------------------------------2-----2-----2-----2-----2-----2-----2-----2-----|
  ------------------------------------------------o-----m-----m-----o-----m-----m-----m-----m-----|

  0:02
E ------------------------------------------------------------------------------------------------|
B ------------------------------------------------------------------------------------------------|
G ------------------------------------------------------------------------------------------------|
D 4-----4-----2-----2-----5-----5-----7-----7-----4-----4-----4-----4-----4-----4-----4-----4-----|
A 4-----4-----2-----2-----5-----5-----7-----7-----4-----4-----4-----4-----4-----4-----4-----4-----|
E 2-----2-----0-----0-----3-----3-----5-----5-----2-----2-----2-----2-----2-----2-----2-----2-----|
  m-----m-----m-----m-----m-----m-----m-----m-----o-----m-----m-----o-----m-----m-----m-----m-----|

  0:05
E ------------------------------------------------------------------------------------------------|
B ------------------------------------------------------------------------------------------------|
G ------------------------------------------------------------------------------------------------|
D 4-----4-----2-----2-----5-----5-----7-----7-----------------------------------------------------|
A 4-----4-----2-----2-----5-----5-----7-----7-----------------------------------------------------|
E 2-----2-----0-----0-----3-----3-----5-----5-----------------------------------------------------|
  m-----m-----m-----m-----m-----m-----m-----m-----------------------------------------------------|

  0:08
E ------------------------------------------------------------------------------------------------|
B ------------------------------------------------------------------------------------------------|
G ------------------------------------------------------------------------------------------------|
D ------------------------------------------------------------------------------------------------|
A ------------------------------------------------------------------------------------------------|
E ------------------------------------------------------------------------------------------------|
  ------------------------------------------------------------------------------------------------|

  0:11
E ------------------------------------------------------------------------------------------------|
B ------------------------------------------------------------------------------------------------|
G ------------------------------------------------------------------------------------------------|
D ------------------------------------------------5-----5-----5-----7-----7-----7-----7-----7-----|
A ------------------------------------------------5-----5-----5-----7-----7-----7-----7-----7-----|
E ------------------------------------------------3-----3-----3-----5-----5-----5-----5-----5-----|
  ------------------------------------------------o-----m-----m-----o-----m-----m-----o-----m-----|

  0:14
E ------------------------------------------------------------------------------------------------|
B ------------------------------------------------------------------------------------------------|
G 7-----7-----7-----7-----7-----7-----7-----------------------------------------------------------|
D 7-----7-----7-----7-----7-----7-----7-----------5-----5-----5-----7-----7-----7-----7-----7-----|
A 5-----5-----5-----5-----5-----5-----5-----------5-----5-----5-----7-----7-----7-----7-----7-----|
E ------------------------------------------------3-----3-----3-----5-----5-----5-----5-----5-----|
  o-----m-----m-----o-----m-----m-----o-----------o-----m-----m-----o-----m-----m-----o-----m-----|

  0:16
E ------------------------------------------------------------------------------------------------|
B ------------------------------------------------------------------------------------------------|
G 7-----7-----7-----7-----7-----7-----7-----------------------------------------------------------|
D 7-----7-----7-----7-----7-----7-----7-----------------------------------------------------------|
A 5-----5-----5-----5-----5-----5-----5-----------------------------------------------------------|
E ------------------------------------------------------------------------------------------------|
  o-----m-----m-----o-----m-----m-----o-----------------------------------------------------------|

  0:19
E ------------------------------------------------------------------------------------------------|
B ------------------------------------------------------------------------------------------------|
G ------------------------------------------------------------------------------------------------|
D ------------------------------------------------5-----5-----5-----7-----7-----7-----7-----7-----|
A ------------------------------------------------5-----5-----5-----7-----7-----7-----7-----7-----|
E ------------------------------------------------3-----3-----3-----5-----5-----5-----5-----5-----|
  ------------------------------------------------o-----m-----m-----o-----m-----m-----o-----m-----|

  0:22
E ------------------------------------------------------------------------------------------------|
B ------------------------------------------------------------------------------------------------|
G 7-----7-----7-----7-----7-----7-----7-----------------------------------------------------------|
D 7-----7-----7-----7-----7-----7-----7-----------5-----5-----5-----7-----7-----7-----7-----7-----|
A 5-----5-----5-----5-----5-----5-----5-----------5-----5-----5-----7-----7-----7-----7-----7-----|
E ------------------------------------------------3-----3-----3-----5-----5-----5-----5-----5-----|
  o-----m-----m-----o-----m-----m-----o-----------o-----m-----m-----o-----m-----m-----o-----m-----|

  0:25
E ------------------------------------------------------------------------------------------------|
B ------------------------------------------------------------------------------------------------|
G 7-----7-----7-----7-----7-----7-----7-----------------------------------------------------------|
D 7-----7-----7-----7-----7-----7-----7-----------------------------------------------------------|
A 5-----5-----5-----5-----5-----5-----5-----------------------------------------------------------|
E ------------------------------------------------------------------------------------------------|
  o-----m-----m-----o-----m-----m-----o-----------------------------------------------------------|

  0:28
E ------------------------------------------------------------------------------------------------|
B ------------------------------------------------------------------------------------------------|
G ------------------------------------------------------------------------------------------------|
D ------------------------------------------------------------------------------------------------|
A ------------------------------------------------------------------------------------------------|
E ------------------------------------------------------------------------------------------------|
  ------------------------------------------------------------------------------------------------|

  0:31
E ------------------------------------------------------------------------------------------------|
B ------------------------------------------------------------------------------------------------|
G ------------------------------------------------------------------------------------------------|
D ------------------------------------------------------------------------------------------------|
A ------------------------------------------------------------------------------------------------|
E ------------------------------------------------------------------------------------------------|
  ------------------------------------------------------------------------------------------------|

  0:33
E ------------------------------------------------------------------------------------------------|
B ------------------------------------------------------------------------------------------------|
G ------------------------------------------------------------------------------------------------|
D ------------------------------------------------------------------------------------------------|
A ------------------------------------------------------------------------------------------------|
E ------------------------------------------------------------------------------------------------|
  ------------------------------------------------------------------------------------------------|

  0:36
E ------------------------------------------------------------------------------------------------|
B ------------------------------------------------------------------------------------------------|
G ------------------------------------------------------------------------------------------------|
D ------------------------------------------------2-----2-----2-----------5-----5-----5-----------|
A ------------------------------------------------2-----2-----2-----------5-----5-----5-----------|
E ------------------------------------------------0-----0-----0-----------3-----3-----3-----------|
  ------------------------------------------------m-----m-----o-----------m-----m-----o-----------|

  0:39
E ------------------------------------------------------------------------------------------------|
B ------------------------------------------------------------------------------------------------|
G ------------------------------------------------------------------------------------------------|
D 7-----7-----7-----------7-----7-----7-----------2-----2-----2-----------5-----5-----5-----------|
A 7-----7-----7-----------7-----7-----7-----------2-----2-----2-----------5-----5-----5-----------|
E 5-----5-----5-----5--5--5-----5-----5-----------0-----0-----0-----------3-----3-----3-----------|
  m-----m-----o-----m--m--m-----m-----o-----------m-----m-----o-----------m-----m-----o-----------|

  0:42
E ------------------------------------------------------------------------------------------------|
B ------------------------------------------------------------------------------------------------|
G ------------------------------------------------------------------------------------------------|
D 7-----7-----7-----------7-----7-----7-----------------------------------------------------------|
A 7-----7-----7-----------7-----7-----7-----------------------------------------------------------|
E 5-----5-----5-----5--5--5-----5-----5-----------------------------------------------------------|
  m-----m-----o-----m--m--m-----m-----o-----------------------------------------------------------|

  0:45
E ------------------------------------------------------------------------------------------------|
B ------------------------------------------------------------------------------------------------|
G ------------------------------------------------------------------------------------------------|
D ------------------------------------------------------------------------------------------------|
A ------------------------------------------------------------------------------------------------|
E ------------------------------------------------------------------------------------------------|
  ------------------------------------------------------------------------------------------------|

  0:47
E ------------------------------------------------------------------------------------------------|
B ------------------------------------------------------------------------------------------------|
G ------------------------------------------------------------------------------------------------|
D ------------------------------------------------------------------------------------------------|
A ------------------------------------------------------------------------------------------------|
E ------------------------------------------------------------------------------------------------|
  ------------------------------------------------------------------------------------------------|

  0:50
E ------------------------------------------------------------------------|
B ------------------------------------------------------------------------|
G ------------------------------------------------------------------------|
D ------------------------------------------------------------------------|
A ------------------------------------------------------------------------|
E ------------------------------------------------------------------------|
  ------------------------------------------------------------------------|
comments
We did not receive enough feedback on this tab! Please rate:
print report bad tab
1 2 3 4 5
I want to post or [tab]
guest
You may want to rate the tab now too:
select rating
Please do not post tabs as comments. Select "correction" instead!