Oops, an error
Loading. Please wait.

The Reject - Last Chance Tab

78 views 1 this week
no commentswrite comment
1 2 3 4 5
please rate
Autoscroll
+/-
esc
set tempo
stop
Contributor
Difficulty
intermediate
Hey! There's an official Ultimate Guitar app which is ideal
for learning songs when you're away from computer. Get the app
WARNING: You are trying to view
                                    content from Ultimate-Guitar.com
                                    in an unauthorized application,
                                    which is prohibited.

                                    Please use an official Ultimate
                                    Guitar Tabs application for iPhone,
                                    iPad or Android to access legitimate
                                    chords, guitar, bass, and drum tabs
                                    from Ultimate-Guitar.com database.

                                    Type "ultimate guitar tabs" in Apple
                                    App Store's or Android Market's
                                    search to find the application.
==================================================================================
Guitar Help
==================================================================================

o = Open
m = Palm-Muted
x = Harmonics

==================================================================================
Guitar 1 Tabs
==================================================================================

  0:00
E ------------------------------------------------------------------------------------------------|
B ------------------------------------------------------------------------------------------------|
G ------------------------------------------------------------------------------------------------|
D ------------------------------------------------------------------------------------------------|
A ------------------------------------------------------------------------------------------------|
E ------------------------------------------------------------------------------------------------|
  ------------------------------------------------------------------------------------------------|

  0:02
E ------------------------------------------------------------------------------------------------|
B ------------------------------------------------------------------------------------------------|
G ------------------------------------------------------------------------------------------------|
D ------------------------------------------------------------------------------------------------|
A ------------------------------------------------------------------------------------------------|
E ------------------------------------------------------------------------------------------------|
  ------------------------------------------------------------------------------------------------|

  0:05
E ------------------------------------------------------------------------------------------------|
B ------------------------------------------------------------------------------------------------|
G ------------------------------------------------------------------------------------------------|
D ------------------------------------------------------------------------------------------------|
A ------------------------------------------------------------------------------------------------|
E ------------------------------------------------------------------------------------------------|
  ------------------------------------------------------------------------------------------------|

  0:08
E ------------------------------------------------------------------------------------------------|
B ------------------------------------------------------------------------------------------------|
G ------------------------------------------------------------------------------------------------|
D 9-----------------------------------------------------------------------------------------------|
A 9-----------------------------------------------------------------------------------------------|
E 7-----------------------------------------------------------------------------------------------|
  r-----------------------------------------------------------------------------------------------|

  0:11
E ------------------------------------------------------------------------------------------------|
B ------------------------------------------------------------------------------------------------|
G 4-----4-----4-----4-----4-----4-----4-----4-----11----11----9-----9-----7-----7-----6-----6-----|
D x-----x-----x-----x-----x-----x-----x-----x-----x-----x-----x-----x-----x-----x-----x-----x-----|
A 2-----2-----2-----2-----2-----2-----2-----2-----9-----9-----7-----7-----5-----5-----4-----4-----|
E ------------------------------------------------------------------------------------------------|
  o-----o-----o-----o-----o-----o-----o-----o-----o-----o-----o-----o-----o-----o-----o-----o-----|

  0:14
E ------------------------------------------------------------------------------------------------|
B ------------------------------------------------------------------------------------------------|
G 11----11-11----11-14----11----9-----7-----9-----11----11-11----11-14----11----9-----7-----9-----|
D x-----x--x-----x--x-----x-----x-----x-----x-----x-----x--x-----x--x-----x-----x-----x-----x-----|
A 9-----9--9-----9--12----9-----7-----5-----7-----9-----9--9-----9--12----9-----7-----5-----7-----|
E ------------------------------------------------------------------------------------------------|
  o--o--o--o--o--o--Oo----Oo----Oo----Oo----Oo----o--o--o--o--o--o--Oo----Oo----Oo----Oo----Oo----|

  0:16
E ------------------------------------------------------------------------------------------------|
B ------------------------------------------------------------------------------------------------|
G 4-----4-----4-----4-----4-----4-----4-----4-----11----11----9-----9-----7-----7-----6-----6-----|
D x-----x-----x-----x-----x-----x-----x-----x-----x-----x-----x-----x-----x-----x-----x-----x-----|
A 2-----2-----2-----2-----2-----2-----2-----2-----9-----9-----7-----7-----5-----5-----4-----4-----|
E ------------------------------------------------------------------------------------------------|
  o-----o-----o-----o-----o-----o-----o-----o-----o-----o-----o-----o-----o-----o-----o-----o-----|

  0:19
E ------------------------------------------------------------------------------------------------|
B ------------------------------------------------------------------------------------------------|
G 11----11-11----11-14----11----9-----7-----9-----11----11-11----11-14----11----9-----7-----9-----|
D x-----x--x-----x--x-----x-----x-----x-----x-----x-----x--x-----x--x-----x-----x-----x-----x-----|
A 9-----9--9-----9--12----9-----7-----5-----7-----9-----9--9-----9--12----9-----7-----5-----7-----|
E ------------------------------------------------------------------------------------------------|
  o--o--o--o--o--o--Oo----Oo----Oo----Oo----Oo----o--o--o--o--o--o--Oo----Oo----Oo----Oo----Oo----|

  0:22
E ------------------------------------------------------------------------------------------------|
B ------------------------------------------------------------------------------------------------|
G 4-----4-----4-----4-----4-----4-----4-----4-----11----11----9-----9-----7-----7-----6-----6-----|
D x-----x-----x-----x-----x-----x-----x-----x-----x-----x-----x-----x-----x-----x-----x-----x-----|
A 2-----2-----2-----2-----2-----2-----2-----2-----9-----9-----7-----7-----5-----5-----4-----4-----|
E ------------------------------------------------------------------------------------------------|
  o-----o-----o-----o-----o-----o-----o-----o-----o-----o-----o-----o-----o-----o-----o-----o-----|

  0:25
E ------------------------------------------------------------------------------------------------|
B ------------------------------------------------------------------------------------------------|
G 11----11-11----11-14----11----9-----7-----9-----11----11-11----11-14----11----9-----7-----9-----|
D x-----x--x-----x--x-----x-----x-----x-----x-----x-----x--x-----x--x-----x-----x-----x-----x-----|
A 9-----9--9-----9--12----9-----7-----5-----7-----9-----9--9-----9--12----9-----7-----5-----7-----|
E ------------------------------------------------------------------------------------------------|
  o--o--o--o--o--o--Oo----Oo----Oo----Oo----Oo----o--o--o--o--o--o--Oo----Oo----Oo----Oo----Oo----|

  0:28
E ------------------------------------------------------------------------------------------------|
B ------------------------------------------------------------------------------------------------|
G ------------------------------------------------------------------------------------------------|
D 4-----4-----4-----4-----4-----4-----4-----7-----7-----7-----7-----7-----7-----7-----7-----7-----|
A ------------------------------------------------------------------------------------------------|
E ------------------------------------------------------------------------------------------------|
  m-----m-----m-----m-----m-----m-----m-----m-----m-----m-----m-----m-----m-----m-----m-----m-----|

  0:31
E ------------------------------------------------------------------------------------------------|
B ------------------------------------------------------------------------------------------------|
G ------------------9-----11----12----11----9-----------------------------------------------------|
D 9-----11----12----------------------------------12----------11----------12----------11----------|
A ------------------------------------------------------------------------------------------------|
E ------------------------------------------------------------------------------------------------|
  o-----o-----o-----o-----o-----o-----o-----o-----o-----------o-----------o-----------o-----------|

  0:33
E ------------------------------------------------------------------------------------------------|
B ------------------------------------------------------------------------------------------------|
G ------------------------------------------------------------------------------------------------|
D 4-----4-----4-----4-----4-----4-----4-----7-----7-----7-----7-----7-----7-----7-----7-----7-----|
A ------------------------------------------------------------------------------------------------|
E ------------------------------------------------------------------------------------------------|
  m-----m-----m-----m-----m-----m-----m-----m-----m-----m-----m-----m-----m-----m-----m-----m-----|

  0:36
E ------------------------------------------------------------------------------------------------|
B ------------------------------------------------------------------------------------------------|
G ------------------9-----11----12----11----9-----------------------------------------------------|
D 9-----11----12----------------------------------12----------11----------12----------11----------|
A ------------------------------------------------------------------------------------------------|
E ------------------------------------------------------------------------------------------------|
  o-----o-----o-----o-----o-----o-----o-----o-----o-----------o-----------o-----------o-----------|

  0:39
E ------------------------------------------------------------------------------------------------|
B ------------------------------------------------------------------------------------------------|
G ------------------------------------------------------------------------------------------------|
D ------------------------------------------------------------------------------------------------|
A ------------------------------------------------------------------------------------------------|
E ------------------------------------------------------------------------------------------------|
  ------------------------------------------------------------------------------------------------|

  0:42
E ------------------------------------------------------------------------------------------------|
B ------------------------------------------------------------------------------------------------|
G ------------------------------------------------------------------------------------------------|
D 9-----7-----9-----12----------11----9-----7-----------7-----9-----7-----12----------11----------|
A ------------------------------------------------------------------------------------------------|
E ------------------------------------------------------------------------------------------------|
  o-----o-----o-----o-----------o-----o-----o-----------o-----o-----o-----o-----------o-----------|

  0:45
E ------------------------------------------------------------------------------------------------|
B ------------------------------------------------------------------------------------------------|
G ------------------------------------------------------------------------------------------------|
D ------------------------------------------------------------------------------------------------|
A ------------------------------------------------------------------------------------------------|
E ------------------------------------------------------------------------------------------------|
  ------------------------------------------------------------------------------------------------|

  0:47
E ------------------------------------------------------------------------------------------------|
B ------------------------------------------------------------------------------------------------|
G ------------------------------------------------------------------------------------------------|
D 9-----7-----9-----12----------11----9-----7-----------7-----9-----7-----12----------11----------|
A ------------------------------------------------------------------------------------------------|
E ------------------------------------------------------------------------------------------------|
  o-----o-----o-----o-----------o-----o-----o-----------o-----o-----o-----o-----------o-----------|

  0:50
E ------------------------------------------------------------------------------------------------|
B ------------------------------------------------------------------------------------------------|
G ------------------------------------------------11-9--------------------------------------------|
D 12----9--9--9--9--12----9--9--9--9--12----9--9--------12----11----9-----11----12----11----------|
A ------------------------------------------------------------------------------------------------|
E ------------------------------------------------------------------------------------------------|
  o-----m--m--m--m--o-----m--m--m--m--o-----m--m--o-----o-----o-----o-----o-----o-----o-----------|

  0:53
E ------------------------------------------------------------------------------------------------|
B ------------------------------------------------------------------------------------------------|
G ------------11----------------------------------------------------------------------------------|
D 9-----9-----------9-----9-----12----9-----11----9-----9-----9-----9-----9-----9-----7-----9-----|
A ------------------------------------------------------------------------------------------------|
E ------------------------------------------------------------------------------------------------|
  m-----m-----o-----m-----m-----o-----m-----o-----m-----m-----m-----m-----m-----m-----o-----------|

  0:56
E ------------------------------------------------------------------------------------------------|
B ------------------------------------------------------------------------------------------------|
G ------------------------------------------------11-9--------------------------------------------|
D 12----9--9--9--9--12----9--9--9--9--12----9--9--------12----11----9-----11----12----11----------|
A ------------------------------------------------------------------------------------------------|
E ------------------------------------------------------------------------------------------------|
  o-----m--m--m--m--o-----m--m--m--m--o-----m--m--o-----o-----o-----o-----o-----o-----o-----------|

  0:59
E ------------------------------------------------------------------------------------------------|
B ------------------------------------------------------------------------------------------------|
G ------------11----------------------------------------------------------------------------------|
D 9-----9-----------9-----9-----12----9-----11----9-----9-----9-----9-----9-----9-----7-----9-----|
A ------------------------------------------------------------------------------------------------|
E ------------------------------------------------------------------------------------------------|
  m-----m-----o-----m-----m-----o-----m-----o-----m-----m-----m-----m-----m-----m-----o-----------|

  1:02
E ------------------------------------------------------------------------------------------------|
B ------------------------------------------------------------------------------------------------|
G ------------------------------------------------11-9--------------------------------------------|
D 12----9--9--9--9--12----9--9--9--9--12----9--9--------12----11----9-----11----12----11----------|
A ------------------------------------------------------------------------------------------------|
E ------------------------------------------------------------------------------------------------|
  o-----m--m--m--m--o-----m--m--m--m--o-----m--m--o-----o-----o-----o-----o-----o-----o-----------|

  1:04
E ------------------------------------------------------------------------------------------------|
B ------------------------------------------------------------------------------------------------|
G ------------11----------------------------------------------------------------------------------|
D 9-----9-----------9-----9-----12----9-----11----9-----9-----9-----9-----9-----9-----7-----9-----|
A ------------------------------------------------------------------------------------------------|
E ------------------------------------------------------------------------------------------------|
  m-----m-----o-----m-----m-----o-----m-----o-----m-----m-----m-----m-----m-----m-----o-----------|

  1:07
E ------------------------------------------------------------------------------------------------|
B 12----------12----12----15----14----12----10----------10----------10----15----------14----------|
G ------------------------------------------------------------------------------------------------|
D ------------------------------------------------------------------------------------------------|
A ------------------------------------------------------------------------------------------------|
E ------------------------------------------------------------------------------------------------|
  o-----------o-----o-----o-----o-----o-----o-----------o-----------o-----o-----------o-----------|

  1:10
E ------------------------------------------------------------------------------------------------|
B ------------------------------------------------------------------------------------------------|
G ------------------------------------------------11-9--------------------------------------------|
D 12----9--9--9--9--12----9--9--9--9--12----9--9--------12----11----9-----11----12----11----------|
A ------------------------------------------------------------------------------------------------|
E ------------------------------------------------------------------------------------------------|
  o-----m--m--m--m--o-----m--m--m--m--o-----m--m--o-----o-----o-----o-----o-----o-----o-----------|

  1:13
E 10----10----10----9-----10----10----12----------10----10----10----9-----10----10----12----------|
B ------------------------------------------------------------------------------------------------|
G ------------------------------------------------------------------------------------------------|
D ------------------------------------------------------------------------------------------------|
A ------------------------------------------------------------------------------------------------|
E ------------------------------------------------------------------------------------------------|
  o-----o-----o-----o-----o-----o-----o-----------o-----o-----o-----o-----o-----o-----o-----------|

  1:16
E ------------------------------------------------------------------------------------------------|
B ------------------------------------------------------------------------------------------------|
G 9-----9-----9-----9-----9-----9-----9-----9-----9-----9-----9-----9-----9-----9-----9-----9-----|
D x-----x-----x-----x-----x-----x-----x-----x-----x-----x-----x-----x-----x-----x-----x-----x-----|
A 7-----7-----7-----7-----7-----7-----7-----7-----7-----7-----7-----7-----7-----7-----7-----7-----|
E ------------------------------------------------------------------------------------------------|
  o-----o-----o-----o-----o-----o-----o-----o-----o-----o-----o-----o-----o-----o-----o-----o-----|

  1:19
E ------------------------------------------------------------------------------------------------|
B ------------------------------------------------------------------------------------------------|
G 11----11----11----11----11----11----11----11----11----11----11----11----11----11----11----11----|
D x-----x-----x-----x-----x-----x-----x-----x-----x-----x-----x-----x-----x-----x-----x-----x-----|
A 11----11----11----11----11----11----11----11----11----11----11----11----11----11----11----11----|
E ------------------------------------------------------------------------------------------------|
  o-----o-----o-----o-----o-----o-----o-----o-----o-----o-----o-----o-----o-----o-----o-----o-----|

  1:21
E ------------------------------------------------------------------------------------------------|
B ------------------------------------------------------------------------------------------------|
G 12----12----12----12----12----12----12----12----12----12----12----12----12----12----12----12----|
D x-----x-----x-----x-----x-----x-----x-----x-----x-----x-----x-----x-----x-----x-----x-----x-----|
A 10----10----10----10----10----10----10----10----10----10----10----10----10----10----10----10----|
E ------------------------------------------------------------------------------------------------|
  o-----o-----o-----o-----o-----o-----o-----o-----o-----o-----o-----o-----o-----o-----o-----o-----|

  1:24
E ------------------------------------------------------------------------------------------------|
B ------------------------------------------------------------------------------------------------|
G 14----14----14----14----14----14----14----14----14----14----14----14----14----14----14----14----|
D x-----x-----x-----x-----x-----x-----x-----x-----x-----x-----x-----x-----x-----x-----x-----x-----|
A 12----12----12----12----12----12----12----12----12----12----12----12----12----12----12----12----|
E ------------------------------------------------------------------------------------------------|
  o-----o-----o-----o-----o-----o-----o-----o-----o-----o-----o-----o-----o-----o-----o-----o-----|

  1:27
E ------------------------------------------------------------------------------------------------|
B ------------------------------------------------------------------------------------------------|
G 16----------------------------------------------------------------------------------------------|
D x-----------------------------------------------------------------------------------------------|
A 14----------------------------------------------------------------------------------------------|
E ------------------------------------------------------------------------------------------------|
  r-----------------------------------------------------------------------------------------------|

  1:30
E ------------------------------------------------|
B ------------------------------------------------|
G ------------------------------------------------|
D ------------------------------------------------|
A ------------------------------------------------|
E ------------------------------------------------|
  ------------------------------------------------|


==================================================================================
Guitar 2 Tabs
==================================================================================

  0:00
E ------------------------------------------------------------------------------------------------|
B ------------------------------------------------------------------------------------------------|
G ------------------------------------------------------------------------------------------------|
D ------------------------------------------------------------------------------------------------|
A ------------------------------------------------------------------------------------------------|
E ------------------------------------------------------------------------------------------------|
  ------------------------------------------------------------------------------------------------|

  0:02
E ------------------------------------------------------------------------------------------------|
B ------------------------------------------------------------------------------------------------|
G ------------------------------------------------------------------------------------------------|
D ------------------------------------------------------------------------------------------------|
A ------------------------------------------------------------------------------------------------|
E ------------------------------------------------------------------------------------------------|
  ------------------------------------------------------------------------------------------------|

  0:05
E ------------------------------------------------------------------------------------------------|
B ------------------------------------------------------------------------------------------------|
G ------------------------------------------------------------------------------------------------|
D ------------------------------------------------------------------------------------------------|
A ------------------------------------------------------------------------------------------------|
E ------------------------------------------------------------------------------------------------|
  ------------------------------------------------------------------------------------------------|

  0:08
E ------------------------------------------------------------------------------------------------|
B ------------------------------------------------------------------------------------------------|
G ------------------------------------------------------------------------------------------------|
D ------------------------------------------------------------------------------------------------|
A ------------------------------------------------------------------------------------------------|
E ------------------------------------------------------------------------------------------------|
  ------------------------------------------------------------------------------------------------|

  0:11
E ------------------------------------------------------------------------------------------------|
B ------------------------------------------------------------------------------------------------|
G ------------------------------------------------------------------------------------------------|
D ------------------------------------------------------------------------------------------------|
A ------------------------------------------------------------------------------------------------|
E ------------------------------------------------------------------------------------------------|
  ------------------------------------------------------------------------------------------------|

  0:14
E ------------------------------------------------------------------------------------------------|
B ------------------------------------------------------------------------------------------------|
G ------------------------------------------------------------------------------------------------|
D ------------------------------------------------------------------------------------------------|
A ------------------------------------------------------------------------------------------------|
E ------------------------------------------------------------------------------------------------|
  ------------------------------------------------------------------------------------------------|

  0:16
E ------------------------------------------------------------------------------------------------|
B ------------------------------------------------------------------------------------------------|
G ------------------------------------------------------------------------------------------------|
D ------------------------------------------------------------------------------------------------|
A ------------------------------------------------------------------------------------------------|
E ------------------------------------------------------------------------------------------------|
  ------------------------------------------------------------------------------------------------|

  0:19
E ------------------------------------------------------------------------------------------------|
B ------------------------------------------------------------------------------------------------|
G ------------------------------------------------------------------------------------------------|
D ------------------------------------------------------------------------------------------------|
A ------------------------------------------------------------------------------------------------|
E ------------------------------------------------------------------------------------------------|
  ------------------------------------------------------------------------------------------------|

  0:22
E ------------------------------------------------------------------------------------------------|
B ------------------------------------------------------------------------------------------------|
G ------------------------------------------------7-----7-----7-----7-----7-----7-----7-----7-----|
D 9-----9-----9-----9-----9-----9-----9-----9-----7-----7-----7-----7-----7-----7-----7-----7-----|
A 9-----9-----9-----9-----9-----9-----9-----9-----5-----5-----5-----5-----5-----5-----5-----5-----|
E 7-----7-----7-----7-----7-----7-----7-----7-----------------------------------------------------|
  o-----o-----o-----o-----o-----o-----o-----o-----o-----o-----o-----o-----o-----o-----o-----o-----|

  0:25
E ------------------------------------------------------------------------------------------------|
B ------------------------------------------------------------------------------------------------|
G ------------------------------------------------------------------------------------------------|
D 5-----5-----5-----5-----5-----5-----5-----5-----7-----7-----7-----7-----7-----7-----7-----7-----|
A 5-----5-----5-----5-----5-----5-----5-----5-----7-----7-----7-----7-----7-----7-----7-----7-----|
E 3-----3-----3-----3-----3-----3-----3-----3-----5-----5-----5-----5-----5-----5-----5-----5-----|
  o-----o-----o-----o-----o-----o-----o-----o-----o-----o-----o-----o-----o-----o-----o-----o-----|

  0:28
E ------------------------------------------------------------------------------------------------|
B ------------------------------------------------------------------------------------------------|
G ------------------------7-----------------------------------------------------------------------|
D 9-----------------------7-----------------------7-----7--7-----7--5-----7-----7--7-----7--5-----|
A 9-----------------------5-----------------------7-----7--7-----7--5-----7-----7--7-----7--5-----|
E 7-----------------------------------------------5-----5--5-----5--3-----5-----5--5-----5--3-----|
  o-----------------------o-----------------------o--o--o--o--o--o--o--o--o--o--o--o--o--o--o--o--|

  0:31
E ------------------------------------------------------------------------------------------------|
B ------------------------------------------------------------------------------------------------|
G ------------------------------7-----------------------------------------------------------------|
D 9-----------9-----------------7-----------5-----------5-----------------5-----------7-----------|
A 9-----------9-----------------5-----------5-----------5-----------------5-----------7-----------|
E 7-----------7-----------------------------3-----------3-----3--3--3--3--3-----3--3--5-----5--5--|
  o-----------o-----------------o-----------o-----------o-----m--m--m--m--o-----m--m--o-----m--m--|

  0:33
E ------------------------------------------------------------------------------------------------|
B ------------------------------------------------------------------------------------------------|
G ------------------------7-----------------------------------------------------------------------|
D 9-----------------------7-----------------------7-----7--7-----7--5-----7-----7--7-----7--5-----|
A 9-----------------------5-----------------------7-----7--7-----7--5-----7-----7--7-----7--5-----|
E 7-----------------------------------------------5-----5--5-----5--3-----5-----5--5-----5--3-----|
  o-----------------------o-----------------------o--o--o--o--o--o--o--o--o--o--o--o--o--o--o--o--|

  0:36
E ------------------------------------------------------------------------------------------------|
B ------------------------------------------------------------------------------------------------|
G ------------------------------7-----------------------------------------------------------------|
D 9-----------9-----------------7-----------5-----------5-----------------5-----------7-----------|
A 9-----------9-----------------5-----------5-----------5-----------------5-----------7-----------|
E 7-----------7-----------------------------3-----------3-----3--3--3--3--3-----3--3--5-----5--5--|
  o-----------o-----------------o-----------o-----------o-----m--m--m--m--o-----m--m--o-----m--m--|

  0:39
E ------------------------------------------------------------------------------------------------|
B ------------------------------------------------------------------------------------------------|
G ------------------------7-----7-----------------------------------------7-----7-----------------|
D 9-----9-----5-----5-----7-----7-----7-----7-----9-----9-----5-----5-----7-----7-----7-----7-----|
A 9-----9-----5-----5-----5-----5-----7-----7-----9-----9-----5-----5-----5-----5-----7-----7-----|
E 7-----7-----3-----3-----------------5-----5-----7-----7-----3-----3-----------------5-----5-----|
  o-----o-----o-----o-----o-----o-----o-----o-----o-----o-----o-----o-----o-----o-----o-----o-----|

  0:42
E ------------------------------------------------------------------------------------------------|
B ------------------------------------------------------------------------------------------------|
G ------------------------7-----7-----------------------------------------7-----7-----------------|
D 9-----9-----5-----5-----7-----7-----7-----7-----9-----9-----5-----5-----7-----7-----7-----7-----|
A 9-----9-----5-----5-----5-----5-----7-----7-----9-----9-----5-----5-----5-----5-----7-----7-----|
E 7-----7-----3-----3-----------------5-----5-----7-----7-----3-----3-----------------5-----5-----|
  o-----o-----o-----o-----o-----o-----o-----o-----o-----o-----o-----o-----o-----o-----o-----o-----|

  0:45
E ------------------------------------------------------------------------------------------------|
B ------------------------------------------------------------------------------------------------|
G ------------------------7-----7-----------------------------------------7-----7-----------------|
D 9-----9-----5-----5-----7-----7-----7-----7-----9-----9-----5-----5-----7-----7-----7-----7-----|
A 9-----9-----5-----5-----5-----5-----7-----7-----9-----9-----5-----5-----5-----5-----7-----7-----|
E 7-----7-----3-----3-----------------5-----5-----7-----7-----3-----3-----------------5-----5-----|
  o-----o-----o-----o-----o-----o-----o-----o-----o-----o-----o-----o-----o-----o-----o-----o-----|

  0:47
E ------------------------------------------------------------------------------------------------|
B ------------------------------------------------------------------------------------------------|
G ------------------------7-----7-----------------------------------------7-----7-----------------|
D 9-----9-----5-----5-----7-----7-----7-----7-----9-----9-----5-----5-----7-----7-----7-----7-----|
A 9-----9-----5-----5-----5-----5-----7-----7-----9-----9-----5-----5-----5-----5-----7-----7-----|
E 7-----7-----3-----3-----------------5-----5-----7-----7-----3-----3-----------------5-----5-----|
  o-----o-----o-----o-----o-----o-----o-----o-----o-----o-----o-----o-----o-----o-----o-----o-----|

  0:50
E ------------------------------------------------------------------------------------------------|
B ------------------------------------------------------------------------------------------------|
G ------------------------------------------------------------------------------------------------|
D ------------------------------------------------------------------------------------------------|
A ------------------------------------------------------------------------------------------------|
E ------------------------------------------------------------------------------------------------|
  ------------------------------------------------------------------------------------------------|

  0:53
E ------------------------------------------------------------------------------------------------|
B ------------------------------------------------------------------------------------------------|
G ------------------------------------------------------------------------------------------------|
D ------------------------------------------------------------------------------------------------|
A ------------------------------------------------------------------------------------------------|
E ------------------------------------------------------------------------------------------------|
  ------------------------------------------------------------------------------------------------|

  0:56
E ------------------------------------------------------------------------------------------------|
B ------------------------------------------------------------------------------------------------|
G ------------------------------------------------------------------------------------------------|
D ------------------------------------------------------------------------------------------------|
A ------------------------------------------------------------------------------------------------|
E ------------------------------------------------------------------------------------------------|
  ------------------------------------------------------------------------------------------------|

  0:59
E ------------------------------------------------------------------------------------------------|
B ------------------------------------------------------------------------------------------------|
G ------------------------------------------------------------------------------------------------|
D ------------------------------------------------------------------------------------------------|
A ------------------------------------------------------------------------------------------------|
E ------------------------------------------------------------------------------------------------|
  ------------------------------------------------------------------------------------------------|

  1:02
E ------------------------------------------------------------------------------------------------|
B ------------------------------------------------------------------------------------------------|
G ------------------------------------------------7-----7-----7-----7-----7-----7-----7-----7-----|
D 9-----9-----9-----9-----9-----9-----9-----9-----7-----7-----7-----7-----7-----7-----7-----7-----|
A 9-----9-----9-----9-----9-----9-----9-----9-----5-----5-----5-----5-----5-----5-----5-----5-----|
E 7-----7-----7-----7-----7-----7-----7-----7-----------------------------------------------------|
  o-----o-----o-----o-----o-----o-----o-----o-----o-----o-----o-----o-----o-----o-----o-----o-----|

  1:04
E ------------------------------------------------------------------------------------------------|
B ------------------------------------------------------------------------------------------------|
G ------------------------------------------------------------------------------------------------|
D 5-----5-----5-----5-----5-----5-----5-----5-----7-----7-----7-----7-----7-----7-----7-----7-----|
A 5-----5-----5-----5-----5-----5-----5-----5-----7-----7-----7-----7-----7-----7-----7-----7-----|
E 3-----3-----3-----3-----3-----3-----3-----3-----5-----5-----5-----5-----5-----5-----5-----5-----|
  o-----o-----o-----o-----o-----o-----o-----o-----o-----o-----o-----o-----o-----o-----o-----o-----|

  1:07
E ------------------------------------------------------------------------------------------------|
B ------------------------------------------------------------------------------------------------|
G ------------------------------------------------------------------------------------------------|
D ------------------------------------------------------------------------------------------------|
A ------------------------------------------------------------------------------------------------|
E ------------------------------------------------------------------------------------------------|
  ------------------------------------------------------------------------------------------------|

  1:10
E ------------------------------------------------------------------------------------------------|
B ------------------------------------------------------------------------------------------------|
G ------------------------------------------------7-----7-----7-----7-----7-----7-----7-----7-----|
D 9-----9-----9-----9-----9-----9-----9-----9-----7-----7-----7-----7-----7-----7-----7-----7-----|
A 9-----9-----9-----9-----9-----9-----9-----9-----5-----5-----5-----5-----5-----5-----5-----5-----|
E 7-----7-----7-----7-----7-----7-----7-----7-----------------------------------------------------|
  o-----o-----o-----o-----o-----o-----o-----o-----o-----o-----o-----o-----o-----o-----o-----o-----|

  1:13
E ------------------------------------------------------------------------------------------------|
B ------------------------------------------------------------------------------------------------|
G ------------------------------------------------------------------------------------------------|
D ------------------------------------------------------------------------------------------------|
A ------------------------------------------------------------------------------------------------|
E ------------------------------------------------------------------------------------------------|
  ------------------------------------------------------------------------------------------------|

  1:16
E ------------------------------------------------------------------------------------------------|
B ------------------------------------------------------------------------------------------------|
G ------------------------------------------------------------------------------------------------|
D 4-----4-----4-----4-----4-----4-----4-----4-----4-----4-----4-----4-----4-----4-----4-----4-----|
A 4-----4-----4-----4-----4-----4-----4-----4-----4-----4-----4-----4-----4-----4-----4-----4-----|
E 4-----4-----4-----4-----4-----4-----4-----4-----4-----4-----4-----4-----4-----4-----4-----4-----|
  o-----o-----o-----o-----o-----o-----o-----o-----o-----o-----o-----o-----o-----o-----o-----o-----|

  1:19
E ------------------------------------------------------------------------------------------------|
B ------------------------------------------------------------------------------------------------|
G ------------------------------------------------------------------------------------------------|
D 6-----6-----6-----6-----6-----6-----6-----6-----6-----6-----6-----6-----6-----6-----6-----6-----|
A 6-----6-----6-----6-----6-----6-----6-----6-----6-----6-----6-----6-----6-----6-----6-----6-----|
E 4-----4-----4-----4-----4-----4-----4-----4-----4-----4-----4-----4-----4-----4-----4-----4-----|
  o-----o-----o-----o-----o-----o-----o-----o-----o-----o-----o-----o-----o-----o-----o-----o-----|

  1:21
E ------------------------------------------------------------------------------------------------|
B ------------------------------------------------------------------------------------------------|
G ------------------------------------------------------------------------------------------------|
D 8-----8-----8-----8-----8-----8-----8-----8-----8-----8-----8-----8-----8-----8-----8-----8-----|
A 8-----8-----8-----8-----8-----8-----8-----8-----8-----8-----8-----8-----8-----8-----8-----8-----|
E 6-----6-----6-----6-----6-----6-----6-----6-----6-----6-----6-----6-----6-----6-----6-----6-----|
  o-----o-----o-----o-----o-----o-----o-----o-----o-----o-----o-----o-----o-----o-----o-----o-----|

  1:24
E ------------------------------------------------------------------------------------------------|
B ------------------------------------------------------------------------------------------------|
G ------------------------------------------------------------------------------------------------|
D 9-----9-----9-----9-----9-----9-----9-----9-----9-----9-----9-----9-----9-----9-----9-----9-----|
A 9-----9-----9-----9-----9-----9-----9-----9-----9-----9-----9-----9-----9-----9-----9-----9-----|
E 7-----7-----7-----7-----7-----7-----7-----7-----7-----7-----7-----7-----7-----7-----7-----7-----|
  o-----o-----o-----o-----o-----o-----o-----o-----o-----o-----o-----o-----o-----o-----o-----o-----|

  1:27
E ------------------------------------------------------------------------------------------------|
B ------------------------------------------------------------------------------------------------|
G ------------------------------------------------------------------------------------------------|
D ------------------------------------------------------------------------------------------------|
A ------------------------------------------------------------------------------------------------|
E ------------------------------------------------------------------------------------------------|
  ------------------------------------------------------------------------------------------------|

  1:30
E ------------------------------------------------|
B ------------------------------------------------|
G ------------------------------------------------|
D ------------------------------------------------|
A ------------------------------------------------|
E ------------------------------------------------|
  ------------------------------------------------|


Hope you enjoy the tab, i know it's 100% right :)
comments
We did not receive enough feedback on this tab! Please rate:
print report bad tab
1 2 3 4 5
I want to post or [tab]
guest
You may want to rate the tab now too:
select rating
Please do not post tabs as comments. Select "correction" instead!